Diabolical Masquerade - The Eerie Obzidian Circuz Chords & Tabs

 

The Eerie Obzidian Circuz Chords & Tabs

Diabolical Masquerade Chords & Tabs

Version: 1 Type: Tab 0 ratings
1 star 2 stars 3 stars 4 stars 5 stars
comments

The Eerie Obzidian Circuz Tab

Diabolical Masquerade - The Eerie Obzidian Circuz
from the album Nightwork
[ Tab from: http://www.guitartabs.cc/tabs/d/diabolical_masquerade/the_eerie_obzidian_circuz_tab.html ]
Tabbed by Frank Blackthorne
Any comments or corrections can be sent to: Steinzo@hotmail.com
Warning: some little bits are still missing but this will give you a good
         idea of how the song is played. This tab has been made for standar
         tuning.
Legend:
        . =palm muting
        ~ =vibrato
        / =slide up
        \ =slide down
        h =hamer on
        p =pull off
        * =natural harmonic (or pinch?)
Fill 1
   |---------
   |---------
gtr|---------
1  |-999-----
   |-777-----
   |---------
     ...
   |---------
   |---------
gtr|---------
2  |-----999-
   |-----777-
   |---------
         ...
Riff 1
|-----------------
|-----------------
|-----------------
|-999-888-555-888-
|-777-666-333-666-
|-----------------
  ... ... ... ...
Riff 2
   |----------------------------------------
   |----------------------------------------
gtr|----------5*----------------------------
 1 |-4-5-----------------4-5------3/----10\-
   |-4-5-----------------4-5------1/----8-\-
   |-----3210-----3-3210-----3210-----------
         ....       ....     ....
   |----------------------------------------
   |----------------------------------------
gtr|----------5*----------------------------
 2 |-4-5-----------------4-5---------3/-10\-
   |-4-5-----------------4-5---------1/-8-\-
   |-----3210-----3-3210-----3210-----------
         ....       ....     ....
Fill 2
|-----
|-----
|-----
|-4-3-
|-2-1-
|-2-1-
  . .
Riff 3 (tremolo pick)
|----------------------
|----------------------
|----------------------
|-5---4-5-8-7-5---4/8\-
|-3---2-3-6-5-3---2/6\-
|----------------------

Fill 3
|---------
|---------
|---------
|-2-2-2-2-
|-2-2-2-2-
|-0-0-0-0-
  . . . .
Riff 4
   |-------------------------------
   |-------------------------------
gtr|-------------------------------
 1 |-------------------------------
   |-------------------------------
   |-0---3---0---3---0---3---2---1-

Fill 4
|-------------------------------
|---------5(6)trill-6-5---------
|-----------------------7-6-----
|-4-3-6---------------------6-~-
|-2-1-4-------------------------
|-2-1-4-------------------------
  . .
Riff 5
|--------------------------------------------
|--------------------------------------------
|--------------------------------------------
|--------------------------------------------
|------5(7)trill------5(7)trill----7(8)trill-
|-0000-----------0000-----------00-----------
  ....           ....           ..
Comments