Diabolical Masquerade - Dreadventurouz Chords & Tabs

 

Dreadventurouz Chords & Tabs

Diabolical Masquerade Chords & Tabs

Version: 1 Type: Tab 0 ratings
1 star 2 stars 3 stars 4 stars 5 stars
comments

Dreadventurouz Tab

Diabolical Masquerade - Dreadventurouz
from the album Nightwork

Tabbed by Frank Blackthorne
Any comments or corrections can be sent to: Steinzo@hotmail.com
Warning: some little bits are still missing but this will give you a good
         idea of how the song is played.

Legend:
        . =palm muting
        ~ =vibrato

Riff 1
|-----------
|-----------
|-----------
|-6---6-2---
|-4---4-3---
|-4---4-0---
      .

Riff 2 (play twice)
|---------------------------------
|---------------------------------
|-4-3-3-----3-3---------3-3-----5-
|-2-1-1-5-5-1-1-5-5-4-4-1-1-5-5-3-
|-------3-3-----3-3-2-2-----3-3---
|---------------------------------

|---------------------------------
|---------------------------------
|-4-3-3-----3-3-------------------
|-2-1-1-5-5-1-1-5-----------------
|-------3-3-----3-5-4-3-----------
|-----------------------4~--------

Fill 1
|------------------------------
|------------------------------
|------------------------------
|------------------------------
|-------2-1---5-4-2-1-2-4-5~---
|-0-2-3-----3------------------

Riff 3       play 2 times end of riff 3
|------------------------|-------------
|------------------------|-------------
|------------------------|-------------
|-------56----------54---|-------------
|-222---78----222---76---|-222-222-333-
|-000---------000--------|-000-111-222-
  ...         ...          ... ... ...
[ Tab from: http://www.guitartabs.cc/tabs/d/diabolical_masquerade/dreadventurouz_tab.html ]
Riff 4                 play 4 times end of riff 4
|----------------------------------|-------------
|----------------------------------|-------------
|----------------------------------|-------------
|-------5-6-------------5-4--------|-------------
|-2-222-7-8-------2-222-7-6--------|-222-222-333-
|-0-000-----0033220-000-----003322-|-000-111-222-
  . ...     ....... ...     ......   ... ... ...

Play riff 3 and 4 again
Keyboard interlude

Riff 5
|-------------------------------------------------------------------------
|-------------------------------------------------------------------------
|-------------------------------------------------------------------------
|-------------------------------------------------------------------------
|-2-3---------------2-3-----------------------5-4---------------5-4-------
|-------3-2-0-------------3-2-0-------5-4---0-----------5-4---0-----------
            *                 *                 *                 *
2nd and 3rd time, play *note in 16th

Keyboard interlude
Play riff 1 eight times
Play fill 1 (except last note)
Play riff 3 and 4
Play riff 2 one and a half time
Play riff 2 twice

Riff 6 (play twice)
|---------------------------------
|---------------------------------
|-6-5-5-----5-5---------5-5-----7-
|-4-3-3-7-7-3-3-7-7-6-6-3-3-6-6-5-
|-------5-5-----5-5-4-4-----4-4---
|---------------------------------

|---------------------------------
|---------------------------------
|-6-5-5-----5-5-------------------
|-4-3-3-7-7-3-3-7-----------------
|-------5-5-----5-7-6-5-----------
|-----------------------6~--------

I have not yet figured out the last riffs, sorry.
Comments