Diablo - Tristram Chords & Tabs

 

Tristram Chords & Tabs

Diablo Chords & Tabs

Version: 1 Type: Tab 2 ratings
1 star 2 stars 3 stars 4 stars 5 stars
comments

Tristram Tab

   
Guitar Tab - Tristram

                                          h=hammer
                                          p=pull off
Tabbed by: Mephistus                      /=slide
Email:     andreas@cocacoliker.com        {=natural harmonic

E A D G B E 	 4/4

This is only the acoustic sections of the song.


Intro:  section: (1) 
 |       |       |       |        |       |       |       |                
|0-------------------------------|0-------------------------------|
|0-------------------------------|0-------------------------------|
|2-------------------------------|2-------------------------------|
|2-------------------------------|1-------------------------------| Repeat 1x
|0-------------------------------|0-------------------------------| 
|--------------------------------|--------------------------------|
 
  section: (2)
 |       |       |       |        |       |       |       |                
|0-------------------------------|0-------------------------------|
|0-------------------------------|0-------------------------------|
|2-------------------------------|3-------------------------------|
|3-------------------------------|4-------------------------------| Repeat 1x, then 
|0-------------------------------|--------------------------------| play sec(1) twice
|--------------------------------|--------------------------------| more, then on to 
                                                                    sec(3)

  section:  (3)
 |       |       |       |        |       |       |       |                 
|--------------------------------|--------------------------------|   
|----0---0---0---0---0---0---0---|----0---0---0---0---0---0---0---|   
|--2---2---2---2---2---2---2---2-|--3---3---3---3---3---3---3---3-| 
|3-------------------------------|4-------------------------------| Repeat twice  
|--------------------------------|--------------------------------| 
|--------------------------------|--------------------------------| 

  section:  (4)
 |       |       |       |        |       |       |       |            
|--------------------------------|--------------------------------|
|----0---0---0---0---0---0---0---|----0-------0-------0-------0---|
|--2---2---2---2---2---2---2---2-|--3---3---3---3---0---0---0---0-|
|3-------------------------------|4-------2-------0---------------|
|--------------------------------|------------------------4-------|
|--------------------------------|--------------------------------|

Let the notes ring..

  section:  (5)
 |       |       |       |        |       |       |       |                
|----------0---------------0-----|----------0---------------0-----| 
|--------3---3-----------3---3---|--------3---3-----------3---3---|
|----0---------0-----0---------0-|----0---------0-----0---------0-|
|--4---------------4-------------|--4---------------4-------------| Repeat 2x
|2-----2---------2-----2---------|3-----3---------3-----3---------|
|--------------------------------|--------------------------------|


 |       |       |       |        |       |       |       |             
|--------------------------------|--------------------------------|
|--------0h1p0-----------0h1p0---|--------0h1p0-----------0h1p0---|
|----2---------2-----2---------2-|----2---------2-----2---------2-|
|--2---------------2-------------|--2---------------2-------------| 
|0-----0---------0-----0---------|--------------------------------|
|--------------------------------|1-----1---------1-----1---------|

[ Tab from: http://www.guitartabs.cc/tabs/d/diablo/tristram_tab.html ]
 |       |       |       |        |       |       |       |        
|--------------12{---------------|--------------------------------|
|--------------12{---------------|--------------------------------|
|--------------12{---------------|-----------Rest-----------------|
|--------------12{---------------|--------------------------------| on to section(6)
|--------------------------------|--------------------------------|
|0-------------------------------|--------------------------------|

  section: (6)
 |       |       |       |        |       |       |       |             
|0-------------------------------|0-------------------------------|
|0-------------------------------|0-------------------------------|
|2-------------------------------|2-------------------------------|
|2-------------------------------|1-------------------------------|
|0-------------------------------|0-------------------------------|
|--------------------------------|--------------------------------|


 |       |       |       |        |       |       |       |                
|0-------------------------------|0-------------------------------|
|0-------------------------------|0-------------------------------|
|2-------------------------------|2-------------------------------|
|3-------------------------------|2-------------------------------|
|3-------------------------------|0-------------------------------|
|1-------------------------------|0-------------------------------|


 |       |       |       |        |       |       |       |              
|0-------------------------------|0-------------------------------|
|0-------------------------------|0-------------------------------|
|2-------------------------------|1-------------------------------|
|3-------------------------------|2-------------------------------|
|3-------------------------------|2-------------------------------|
|1---------------------------0-0-|0-------------------------------|


Note: Er.. now the fun part

  section: (7)
 |       |       |       |        |       |       |       |               
|--------------------------------|--------------------------------|
|----0-----0---------0-----0-----|----0-----0---------0-----0-----|
|--2-----2---------2-----2-------|--0-----0---------0-----0-------|
|------2---------------2---------|------------2---------------2---|
|0---------------0---------------|------2---------------2---------|
|------------0---------------0---|0---------------0---------------|


 |       |       |       |        |       |       |       |               
|----------------0---------------|1p0-----1p0-----0-------0-------|
|--------0---------0-----0-------|----1p0-----1p0---0-------0-----|
|----4-----4---------4-----4-----|--------------------1-------1---|
|--4---------4---------4-----4---|----------------2-----2-------2-| Repeat sec(7) 1x
|2-----2-------2---------------2-|--------------------------------|
|--------------------------------|1-------1-----------------------|



   section: (8)
 |       |       |       |        |       |       |       |                
|----------------12{-------------|--------------------------------|
|----------------12{-------------|--------------------------------|
|----------------12{-------------|--------------------------------|
|----------------12{-------------|-------------Rest---------------|
|----------------12{-------------|--------------------------------|
|0---------------12{-------------|--------------------------------|


Ok, the last part is the mandolin sounding parts.  If any of you can
figure this out, please feel free to add.  I gave up. ;)  This tab will
get you on your way, though.

See ya!



Comments