Dia Psalma - Hustmne Chords & Tabs

 

Hustmne Chords & Tabs

Dia Psalma Chords & Tabs

Version: 1 Type: Tab 0 ratings
1 star 2 stars 3 stars 4 stars 5 stars
comments

Hustmne Tab

   
Dia Psalma - Höstmåne

nedstämt 2 steg

intro

e:---------------------------------------|
B:---------------------------------------|
G:---------------------------------------|
D:---7----------7------------------------|
A:-----7--5--7----8--7h8p7---5-----------|
E:---------------------------------------|

e:---------------------------------------|
B:---------------------------------------|
G:---------------------------------------|
D:---7----------7------------------------|
A:-----7--5--7----8--7h8p7---5------5--7-|
E:-------------------------------8-------|


Am                  G             C
Det var en gång en kvinna och en man,
     Am         G            C
som länge hade drömt om ett barn.
         Am           Em         F         G
Men när barnet aldrig kom, så tröstade sig de,
C                   G         Am  F
vår familj får nog vänta ett taaaag,
C                  G        C
familjen får nog vänta ett tag.


Am                    G              C
De längtade till att få bli mor och far,
Am               G           C
alla barnkläder som de hade spart.
      Am          Em           F           G
De försökte flera år, det blev alltid som igår,
     C       G         Am      F
Men vår tur kommer nog snaaaaart,
     C       G           Am
Ja, vår tur kommer nog snart.


Solo.... spela 2 gånger
[ Tab from: http://www.guitartabs.cc/tabs/d/dia_psalma/hustmne_tab.html ]
e:-----------------------------------------------------|
B:-----------------------------------------------------|
G:-----------------------------------------------------|
D:----------5---------------|5|---3--2--2--3--2--0--2--|
A:--0--2-3-----5--5-7--5-5--|7|------------------------|
E:-----------------------------------------------------|

e:-----------------------------------------------------|
B:-----------------------------------------------------|
G:---------0-------------------------------------------|
D:-----------0--0--2--0--0-----------------------------|
A:--0--3----------------------3--2--0------------------|
E:-----------------------------------------------------|


Am             C             F            G
Så en dag äntligen, var det nåt som hade hänt,
    C             Em       Am                Em
hon gick till läkaren, det var som hon hade känt,
            C
hon var med barn.


e:---------------------------------------|
B:---------------------------------------|
G:---------------------------------------|
D:---7----------7------------------------|
A:-----7--5--7----8--7h8p7---5-----------|
E:---------------------------------------|

e:---------------------------------------|
B:---------------------------------------|
G:---------------------------------------|
D:---7----------7------------------------|
A:-----7--5--7----8--7h8p7---5------5--7-|
E:-------------------------------8-------|


Am                      G       C
Hon sprang så fort att tårarna rann,
    Am           G             C
nu skulle hon berätta för sin man.
         Am                Em        F               G
Men ett brev var allt hon såg, från han som i bäcken låg.


        C            G           Am     F
|Det är bäst att du hittar någon aaaaaaann,  |
     C              G              C
|Jag önskar att du hittar nån som kan.       |x2
Comments