Dia Psalma - En Kungens Man Chords & Tabs

 

En Kungens Man Chords & Tabs

Dia Psalma Chords & Tabs

Version: 1 Type: Tab 0 ratings
1 star 2 stars 3 stars 4 stars 5 stars
comments

En Kungens Man Tab

   
-------------------------------------------------------------------------------
			     En Kungens Man  -  Dia Psalma
-------------------------------------------------------------------------------

Tuning : E,A,D,G,H,E

Intro och mellan varje vers
e|-----------------------0-----------------------------------------------------|
B|------------0----1-----------3-----1-------0-----1---------------------------|
G|---2-------------------------------------------------------2-----------------|
D|-----------------------------------------------------------------------------|
A|-----------------------------------------------------------------------------|
E|-----------------------------------------------------------------------------|

e|---5---------5-----3------1------0-------------------------------------------|
B|-------------------------------------------3-------1------3------------------|
G|-----------------------------------------------------------------------------|
D|-----------------------------------------------------------------------------|
A|-----------------------------------------------------------------------------|
E|-----------------------------------------------------------------------------|
[ Tab from: http://www.guitartabs.cc/tabs/d/dia_psalma/en_kungens_man_tab.html ]
e|----0------------------------------------------------------------------------|
B|----------3-----1----0-------------------------------------------------------|
G|-----------------------------0-------2----------2----------------------------|
D|-----------------------------------------------------------------------------|
A|-----------------------------------------------------------------------------|
E|-----------------------------------------------------------------------------|

    Am                 G                  C        G      Am
Maria går på vägen som leder ner till byn
         C                            G               C         D     E
Hon sjunger och hon skrattar åt lärkorna i skyn
        Dm                   C                    G            C
Hon är på väg till torget för att sälja lite bröd
        Dm      C       G               Am         E
Och solen stiger varm och stor och färgar himlen röd

Då möter hon en herre på en häst med yvig man
Han säger jag är kungens man så jag tar vad jag vill ha
och du är alltför vacker för att inte ha någon man
följ med mig in i skogen skall jag visa vad jag kan.

Hon tvingas ner i gräset och han tar på hennes kropp
Hon slingrar sig och ber honom: För guds skull hålla opp
Men riddarn bara skrattar berusad av sin glöd
Så hon tar hans kniv och stöter till och riddaren död

Dom fängslade Maria och hon stenades för dråp
Men minnet efter riddaren det blev firat varje år
Ja herrarna blir hjältar men folket det blir dömt
Och vi som sett hur allt går till vi får veta att vi drömt
Comments