Dia Psalma - Betongbarn Chords & Tabs

 

Betongbarn Chords & Tabs

Dia Psalma Chords & Tabs

Version: 2 Type: Tab 0 ratings
1 star 2 stars 3 stars 4 stars 5 stars
comments

Betongbarn Tab

   
There are so few Dia Psalma tabs on the internet right now, and I would like
to make it better....enjoy my tab.

Standard tuning

Start with that extremly long slide an then go to the intro:

e|--------------------------------|
B|--------------------------------|
G|--------------------------------|
D|--------------------------3323--|
A|0-2h3p00---2h3p0--0-2h3p00----2-|
E|--------1-1---------------------|x4


And when that is done continue to the Verse part:


A                               C
Stefan föddes en varm dag sextiotre

                                   F
och redan från början gick allt på sned


hans farsa satt inne på kåken

    D                  G
och hemma var det inte långt mellan bråken


På ett skitigt förortsdass
rökte han sin första pipa brass
försökte fly betongverkligheten
men sjönk allt längre ner i smeten


And then the Intro again 2 times


And now the Chorus...

  A           C
BETONGBARN, BETONGBARN

    F                 G
VEM FAN BRYR SIG OM BETONGBARN x2


Then the intro 2 times again


Then the Verse..

Han började plugget, men hängde inte med
men vem fan orkade bry sig om det
han fick plats i ett ungdomslag
men istället började han supa varje dag

Han kände hur trycket började bli för hårt
orkade inte leva, allt var så svårt
tänkte ingenting på hela vägen ner
en duns i betongen och nu finns han inte mer

Intro 2 times...

Chorus x2

The Bridge goes like this:
[ Tab from: http://www.guitartabs.cc/tabs/d/dia_psalma/betongbarn_tab_ver_2.html ]
E-------------------------------------------------------------------------|
B-------------------------------------------------------------------------|
G--9---9---9---9---9---9---9---9---10---10---10---10----9----9---7---7----|
D----7---7---7---7---7---7---7---7----10---10---10---10---10--10---9---9--|
A-------------------------------------------------------------------------|
E-------------------------------------------------------------------------| x2

And then the funniest part...the Solo:

E----------------------------------------|
B----------------------------------------|
G--9-----9-8-9------9--10------10--9--7--|
D-----7---------7----------10------------|
A----------------------------------------|
E----------------------------------------| x2

And then (still on the solo):


E--------5--------5----------------------------------|
B--------5--------5--------8-------------------------|
G--8(9)-----8(9)-----7(9)-----(9)7--5--4---5-4-----4-|
D-----------------------------------------------7----|
A----------------------------------------------------|
E----------------------------------------------------|

And then (still on this damn solo)


E--------------5------------------5------------------5------------5--|
B----------------5-8-5---5----------5-8-5---5----------5-8-5---5--6--|
G----5---8(9)----------7----8(9)----------7----8(9)----------7-------|
D-7------------------------------------------------------------------|
A--------------------------------------------------------------------|
E--------------------------------------------------------------------|

Chorus x2

Hej hej Conny Ray

Chorus x2

Tabbed by: Jaeger

Visit sliverstudios homepage: www.sliverstudio.se


Have fun!
Comments