Dexter Freebish - Leaving Town Chords & Tabs

 

Leaving Town Chords & Tabs

Dexter Freebish Chords & Tabs

Version: 6 Type: Tab 0 ratings
1 star 2 stars 3 stars 4 stars 5 stars
comments

Leaving Town Tab

#----------------------------------PLEASE NOTE--------------------------------#
#This file is the author's own work and represents their interpretation of the#
#song. You may only use this file for private study, scholarship, or research.#
#-----------------------------------------------------------------------------#
#-- File created with Instab - http://www.pconline.com/~smcarey/instab.html --#
#-----------------------------------------------------------------------------#

Author/Artist: Dexter Freebish
Title: Leaving Town
Album: A Life of Saturdays
Transcribed by: Rohan Kohli
Email: rkohli@xrs.net

This song is completely amazing.  I heard it on WNNX and they mentioned that
this band was from Austin, so I payed special attention cause I lived in
Austin for my whole life and moved to Atlanta this year, and I thoroughly
enjoyed the song.


Lead Intro/Verse:
-5---5---5---5---6---6---6---6---5---5---5---5-------------5------------------|
---6---6---6---6---6---6---6---6---6---6---6---6-8-6-8-6-8---8-6--------------|
------------------------------------------------------------------------------|
------------------------------------------------------------------------------|
------------------------------------------------------------------------------|
------------------------------------------------------------------------------|

Rhythm Intro/Verse:
P.M.************************************************************
------------------------------------------------------------------------------|
------------------------------------------------------------------------------|
-----------------3-3-3-3-3-3-3-3-7-7-7-7-7-7-7-7-5-5-5-5-5-5-5-5--------------|
-3-3-3-3-3-3-3-3-3-3-3-3-3-3-3-3-7-7-7-7-7-7-7-7-5-5-5-5-5-5-5-5--------------|
-3-3-3-3-3-3-3-3-1-1-1-1-1-1-1-1-5-5-5-5-5-5-5-5-3-3-3-3-3-3-3-3--------------|
-1-1-1-1-1-1-1-1--------------------------------------------------------------|

Prechorus Lead:  Something like this
-5b7r-
------|
------|
------|
------|
------|

Prechorus Rhythm:  Distorted guitar randomly played along with the other two guitar
parts which keep playing what they've been playing, this is an overdubbed
guitar unless they have 3 guitarists.  It's really not necessary to play and
is pretty quiet.
------------------------------------------------------------------------------|
------------------------------------------------------------------------------|
-----------------------3---3-3--3--3--3-3-3--7---7-7--7--7--7-7-7--5---5-5----|
-3---3-3--3--3--3-3-3--3---3-3--3--3--3-3-3--7---7-7--7--7--7-7-7--5---5-5----|
-3---3-3--3--3--3-3-3--1---1-1--1--1--1-1-1--5---5-5--5--5--5-5-5--3---3-3----|
-1---1-1--1--1--1-1-1---------------------------------------------------------|

[ Tab from: http://www.guitartabs.cc/tabs/d/dexter_freebish/leaving_town_tab_ver_6.html ]
------------------------------------------------------------------------------|
------------------------------------------------------------------------------|
-5--5--5-5-5------------------------------------------------------------------|
-5--5--5-5-5------------------------------------------------------------------|
-3--3--3-3-3------------------------------------------------------------------|
------------------------------------------------------------------------------|

Chorus:  The mutes at the beginning are occassionally there, but they sound
good, and throw in some mutes during the chorus when there's a chord change
it makes it sound cool, I guess.

(Distortion)
-|---------|---------------------------------|--------------------------------|
-|---------|---------------------------------|--------------------------------|
-|---------|---------3-3-3-3-7-7-7-7-5-5-5-5-|-3-3-3-3-3-3-3-3-5-5-5-5-5-5-5--|
-|-x-x-x-x-|-3-3-3-3-3-3-3-3-7-7-7-7-5-5-5-5-|-3-3-3-3-3-3-3-3-5-5-5-5-5-5-5--|
-|-x-x-x-x-|-3-3-3-3-1-1-1-1-5-5-5-5-3-3-3-3-|-1-1-1-1-1-1-1-1-3-3-3-3-3-3-3--|
-|-x-x-x-x-|-1-1-1-1-------------------------|--------------------------------|


---|--------------------------------------------------------------------------|
---|--------------------------------------------------------------------------|
-5-|--------------------------------------------------------------------------|
-5-|--------------------------------------------------------------------------|
-3-|--------------------------------------------------------------------------|
---|--------------------------------------------------------------------------|

Bridge:
------------------------------------------------------------------------------|
------------------------------------------------------------------------------|
-7-7-7-7-7-7-7-7-5-5-5-5--5-5-5-5-3-3-3-3-3-3-3-3-5-5-5-5-5-5-5-5-------------|
-7-7-7-7-7-7-7-7-5-5-5-5--5-5-5-5-3-3-3-3-3-3-3-3-5-5-5-5-5-5-5-5-------------|
-5-5-5-5-5-5-5-5-3-3-3-3--3-3-3-3-1-1-1-1-1-1-1-1-3-3-3-3-3-3-3-3-------------|
------------------------------------------------------------------------------|

Ending Chord:
------------------------------------------------------------------------------|
------------------------------------------------------------------------------|
-7----------------------------------------------------------------------------|
-7----------------------------------------------------------------------------|
-5----------------------------------------------------------------------------|
------------------------------------------------------------------------------|

Near the end after the bridge, play the chorus a few times and the last time,
play the bridge and end on the D power chord.  I love this song.

I think this is a very easy song to play, and it'll sound good with a band.
Comments