Dexter Freebish - Leaving Town Chords & Tabs

 

Leaving Town Chords & Tabs

Dexter Freebish Chords & Tabs

Version: 4 Type: Tab 0 ratings
1 star 2 stars 3 stars 4 stars 5 stars
comments

Leaving Town Tab

   
Dexter Freebish
Leaving Town
Tabbed By: mjwk_1986@yahoo.com

 Lead Intro/Verse:
E-5---5---5---5---6---6---6---6---5---5---5---5-------------5-----|
B---6---6---6---6---6---6---6---6---6---6---6---6-8-6-8-6-8---8-6-|
G-----------------------------------------------------------------|
D-----------------------------------------------------------------|
A-----------------------------------------------------------------|
E-----------------------------------------------------------------|

 Rhythm Intro/Verse:
 P.M.************************************************************
E-----------------------------------------------------------------|
B-----------------------------------------------------------------|
G-----------------3-3-3-3-3-3-3-3-7-7-7-7-7-7-7-7-5-5-5-5-5-5-5-5-|
D-3-3-3-3-3-3-3-3-3-3-3-3-3-3-3-3-7-7-7-7-7-7-7-7-5-5-5-5-5-5-5-5-|
A-3-3-3-3-3-3-3-3-1-1-1-1-1-1-1-1-5-5-5-5-5-5-5-5-3-3-3-3-3-3-3-3-|
E-1-1-1-1-1-1-1-1-------------------------------------------------|
[ Tab from: http://www.guitartabs.cc/tabs/d/dexter_freebish/leaving_town_tab_ver_4.html ]
 Pre-Chorus:
E------------------------------------------------------------------------------|
B------------------------------------------------------------------------------|
G-----------------------3---3-3--3--3--3-3-3--7---7-7--7--7--7-7-7--5---5-5----|
D-3---3-3--3--3--3-3-3--3---3-3--3--3--3-3-3--7---7-7--7--7--7-7-7--5---5-5----|
A-3---3-3--3--3--3-3-3--1---1-1--1--1--1-1-1--5---5-5--5--5--5-5-5--3---3-3----|
E-1---1-1--1--1--1-1-1---------------------------------------------------------|

E------------------------------------------------------------------------------|
B------------------------------------------------------------------------------|
G-5--5--5-5-5------------------------------------------------------------------|
D-5--5--5-5-5------------------------------------------------------------------|
A-3--3--3-3-3------------------------------------------------------------------|
E------------------------------------------------------------------------------|

 Chorus:
E-3-3-3-3-7-7-7-7-5-5-5-5-----------------------------------------------------|
B-3-3-3-3-3-3-3-3-5-5-5-5-5-5-5-----------------------------------------------|
G-x-x-x-x-|-3-3-3-3-3-3-3-3-7-7-7-7-5-5-5-5-----------------------------------|
D-3-3-3-3-3-3-3-3-5-5-5-5-5-5-5-----------------------------------------------|
A-x-x-x-x-|-3-3-3-3-1-1-1-1-5-5-5-5-3-3-3-3-|-1-1-1-1-1-1-1-1-3-3-3-3-3-3-3---|
E-x-x-x-x-|-1-1-1-1-------------------------|---------------------------------|

 Bridge:
E-------------------------------------------------------------------------------|
B-------------------------------------------------------------------------------|End On...
G-7-7-7-7-7-7-7-7-5-5-5-5--5-5-5-5-3-3-3-3-3-3-3-3-5-5-5-5-5-5-5-5-----------7--|
D-7-7-7-7-7-7-7-7-5-5-5-5--5-5-5-5-3-3-3-3-3-3-3-3-5-5-5-5-5-5-5-5-----------7--|
A-5-5-5-5-5-5-5-5-3-3-3-3--3-3-3-3-1-1-1-1-1-1-1-1-3-3-3-3-3-3-3-3-----------5--|
E-------------------------------------------------------------------------------|
Comments