Dexter Freebish - Leaving Town Chords & Tabs

 

Leaving Town Chords & Tabs

Dexter Freebish Chords & Tabs

Version: 3 Type: Tab 0 ratings
1 star 2 stars 3 stars 4 stars 5 stars
comments

Leaving Town Tab

Song: Leaving Town
Artist: Dexter Freebish
Tabbed by: Joel


     This is a real easy song to play.  There is only one guitar riff
for almost the entire song.

  The intro and the verse is:

E-----------------------------------------------------------------------|
B-----------------------------------------------------------------------|
G-------------------3-3-3-3-3-3-3-3--7-7-7-7-7-7-7-7---5-5-5-5-5-5-5-5--|
D-3-3-3-3-3-3-3-3---3-3-3-3-3-3-3-3--7-7-7-7-7-7-7-7---5-5-5-5-5-5-5-5--|
A-3-3-3-3-3-3-3-3---1-1-1-1-1-1-1-1--5-5-5-5-5-5-5-5---3-3-3-3-3-3-3-3--|
E-1-1-1-1-1-1-1-1-------------------------------------------------------|
[ Tab from: http://www.guitartabs.cc/tabs/d/dexter_freebish/leaving_town_tab_ver_3.html ]
    For the chorus, you play the same chords, but you just play it
    faster. Hit the first chord 3 times, the second 2 times, the third
    3 times, and the fourth 2.


    At the end of the chorus where he says "leaving town,leaving town",
    all you do is play:

E---------------------------------------------------|
B---------------------------------------------------|
G-3-3-3-3-3-3-3-3----5-5-5-5-5-5-5-5----------------|
D-3-3-3-3-3-3-3-3----5-5-5-5-5-5-5-5----------------|
A-1-1-1-1-1-1-1-1----3-3-3-3-3-3-3-3----------------|
E---------------------------------------------------|

    I dont really know the bridge.  Hope this helps!

    Joel
Comments