Devotchkas - Sorry Chords & Tabs

 

Sorry Chords & Tabs

Devotchkas Chords & Tabs

Version: 1 Type: Bass Tab 0 ratings
1 star 2 stars 3 stars 4 stars 5 stars
comments

Sorry Bass Tab

Awesome cover and a very simple song too!
Any questions comments e-mail me broken_youth@hotmail.com. Good luck!  =)

Tuning: Standard

Intro: - all down picking 1st time-
G------------------------------------------------------|
D------------------------------------------------------|
A---------------2-2-2-2-2-2--3-3-3-3-3-3--5-5-5-5-5-5--|
E--3-3-3-3-3-3-----------------------------------------|

G--------------------------------------------------|
D--------------------------------------------------|
A---------------2-2-2-2-2-2--3-3-3-3-3-3-----------|
E--3-3-3-3-3-3----------------------------5-5-4-5--|
[ Tab from: http://www.guitartabs.cc/tabs/d/devotchkas/sorry_btab.html ]
Chorus: (SHOUT IT OUT! SHOUT IT OUT!)
G-------------------------|
D-------------------------|
A--3-2----3-2----2-2-2-2--|
E------3------3-----------|

G------------------------------------------------------------------------------|
D------------------------------------------------------------------------------|
A-3-2----3-2----2-2-2-2--3-3-3-3--5-5-5-5-5-5-5--2-2-2-2--3-3-3-3--5-5-5-5-5-5-|
E------3------3----------------------------------------------------------------|

Back to Intro

Followed by Chorus

then..

Outro:
G----------------|
D----------------|
A--3-2----3-2----|
E------3------3--|


taBBeD bY: JoDY
Comments