Devotchkas - Oi Toy Chords & Tabs

 

Oi Toy Chords & Tabs

Devotchkas Chords & Tabs

Version: 1 Type: Bass Tab

Oi Toy Bass Tab

intro
----------------------------------------------------------| 2x
-----------------5------------------10-------------12-----|
----7------3---3---3---5------7---8----8---10---10-----10-|
--5---5--1---1-------3---3--5---5--------8----8-----------|
[ Tab from: http://www.guitartabs.cc/tabs/d/devotchkas/oi_toy_btab.html ]
verse
---------------------------|
---------------------------|
---------------3-333-------|
--5-555--1-111-------3-333-|

chorus
-----------------------------|
-----------------------------|
-----------------------------|
-5-555--3-3333--5-555--3-333-|