Devotchkas - Live Fast Die Young Chords & Tabs

 

Live Fast Die Young Chords & Tabs

Devotchkas Chords & Tabs

Version: 1 Type: Tab 0 ratings
1 star 2 stars 3 stars 4 stars 5 stars
comments

Live Fast Die Young Tab

   
Artist:devotchaks
song:Live Fast,Die Young

Here's the tab,it took me a while but it's 
sounds good to me,it might have a few mistakes
but you can try it out and plz Rate



INTRO:
e|-------------------------------------|
B|-------------------------------------|
G|-------------------------------------|
D|-pp---pp---p-p-----p-p-----pp---pp---|
A|-99-9-99-9-1111-11-1111-11-77-7-77-7-|
E|-77-7-77-7-1010-10-1010-10-55-5-55-5-|

 
e|--------------------------------------------------------|
B|--------------------------------------------------------|
G|--------------------------------------------------------|
D|-pp---pp---pp---pp---p-p-----p-p-----pp---pp---pp---pp--|
A|-99-9-99-9-99-9-99-9-1111-11-1111-11-77-7-77-7-99-9-99-9|
E|-77-7-77-7-77-7-77-7-1010-10-1010-10-55-5-55-5-77-7-77-7|


let it ring
e|------------------------------------|
B|------------------------------------|
G|------------------------------------|  X2
D|------------------------------------|
A|-9------9-11------11-7------7-9-----|
E|-7------7-10------10-5------5-7-----|

e|------------------------------------|
B|------------------------------------|
G|------------------------------------|  X4
D|------------------------------------|
A|-9-9-9-9-11-11-11-11-7-7-7-7-9-9-9-9|
E|-7-7-7-7-10-10-10-10-5-5-5-5-7-7-7-7|

e|------------------------------------|
B|------------------------------------|
G|------------------------------------|  X2
D|------------------------------------|
A|-9-9-9-9-11-11-11-11-5-5-5-5-7-7-7-7|
E|-7-7-7-7-10-10-10-10-3-3-3-3-5-5-5-5|
[ Tab from: http://www.guitartabs.cc/tabs/d/devotchkas/live_fast_die_young_tab.html ]
e|------------------------------------|
B|------------------------------------|
G|------------------------------------|  X4
D|------------------------------------|
A|-9-9-9-9-11-11-11-11-7-7-7-7-9-9-9-9|
E|-7-7-7-7-10-10-10-10-5-5-5-5-7-7-7-7|

e|------------------------------------|
B|------------------------------------|
G|------------------------------------|  X2
D|------------------------------------|
A|-9-9-9-9-11-11-11-11-5-5-5-5-7-7-7-7|
E|-7-7-7-7-10-10-10-10-3-3-3-3-5-5-5-5|

e|------------------------------------|
B|------------------------------------|
G|------------------------------------|  X6
D|------------------------------------|
A|-9-9-9-9-11-11-11-11-7-7-7-7-9-9-9-9|
E|-7-7-7-7-10-10-10-10-5-5-5-5-7-7-7-7|

e|------------------------------------|
B|------------------------------------|
G|------------------------------------|  X2
D|------------------------------------|
A|-9-9-9-9-11-11-11-11-5-5-5-5-7-7-7-7|
E|-7-7-7-7-10-10-10-10-3-3-3-3-5-5-5-5|

e|------------------------------------|
B|------------------------------------|
G|------------------------------------|  X2
D|------------------------------------|
A|-9-9-9-9-11-11-11-11-7-7-7-7-9-9-9-9|
E|-7-7-7-7-10-10-10-10-5-5-5-5-7-7-7-7|

e|----------------|
B|----------------|
G|----------------|  X8
D|----------------|
A|-5-5-7-7-9-9-9-9|
E|-3-3-5-5-7-7-7-7|

e|------------------------------------|
B|------------------------------------|
G|------------------------------------|  X4
D|------------------------------------|
A|-9-9-9-9-11-11-11-11-7-7-7-7-9-9-9-9|
E|-7-7-7-7-10-10-10-10-5-5-5-5-7-7-7-7|


e|--------|
B|--------|
G|--------|  
D|--------| X8
A|-99-9---|
E|-77-7---|


e|----------|
B|----------|
G|----------|  
D|----------| 
A|-9-9-9-9--|
E|-7-7-7-7--|

P=plam mute
Comments