Devo - Through Being Cool Chords & Tabs

 

Through Being Cool Chords & Tabs

Devo Chords & Tabs

Version: 2 Type: Bass Tab 0 ratings
1 star 2 stars 3 stars 4 stars 5 stars
comments

Through Being Cool Bass Tab

DEVO

Through Being Cool
from "New Traditionalists"

by: Luke   

G:-----------------------:
D:-----------------------:
A:------5-5--5-----------:
E:O---O---------O-3-O-3--:

[ Tab from: http://www.guitartabs.cc/tabs/d/devo/through_being_cool_btab_ver_2.html ]
G:--------------------:
D:-------------O-4-2--:
A:-------O-2-4--------:
E:-O-2-4--------------:

G:--------------------------------------:
D:-----7----------5----------3----------:
A:--------5----------3----------1---2---:
E:-5--5-5-----3--3-3-----1--1-1---------:



Any questions can be e-mailed to:  The_Luke@excite.com
Comments