Devildriver - Swinging The Dead Chords & Tabs

 

Swinging The Dead Chords & Tabs

Devildriver Chords & Tabs

Version: 1 Type: Bass Tab 0 ratings
1 star 2 stars 3 stars 4 stars 5 stars
comments

Swinging The Dead Bass Tab

   
Legend
h-Hammer
p-Pull-Off
\-Slide Up
/Slide down

Pre Intro
G|---||
D|---||
A|---||
E|---||
B|0--||

Intro 1
G|----------------------||
D|----------------------||
A|----------------------||
E|----------------------||
B|-0-------0---------00-||

Intro 2
G|-------------||
D|-------------||
A|-------------||
E|-------------||
B|-5-4-3-6-5-4-||

Pre-Verse
G|---------------------------------------------------------||
D|---------------------------------------------------------||
A|---------------------------------------------------------||
E|---6p5p0-5hp0-6p5p0---6p5p0-5h6p0-6----6p5p0-5h6p0-6p5p0-||
B|-0------------------0---------------00-------------------||

Bridge 1
G|---------------------||
D|---------------------||
A|---------------------||
E|-6p5p0-3h5p0-6p5p0-1-||
B|---------------------||

Chorus 1
G|-----|---------------------------------||
D|-----|---------------------------------||
A|-----|---------------------------------||
E|-----|---------------------------------||
B|-12/-|-1-0-0-1-0-0-1-0-0-1-0-0-1-1-0-0-||
[ Tab from: http://www.guitartabs.cc/tabs/d/devildriver/swinging_the_dead_btab.html ]
Chorus 2
G|-----------------||
D|-----------------||
A|-----------------||
E|-----------------||
B|-1/6-0-1/6-0-1-0-||

Bridge 2
G|-------------------||
D|-------------------||
A|-------------------||
E|-----6p5p0-3h5p0-1-||
B|-0~~---------------||

Bridge 3
G|-----------------------||
D|-----------------------||
A|-----------------------||
E|---6p5p0-5h6p0---6p5p0-||
B|-0-------------0-------||

Verse
G|-----------------------------------------------------------------||
D|-----------------------------------------------------------------||
A|-----------------------------------------------------------------||
E|-----------------------------------------------------------------||
B|-000-000-000-000-000-000-000-111-000-000-000-000-000-000-000-333-||


Structure:
Pre Intro
Intro 1
Intro 2
Intro 1
Intro 2
Preverse
Intro 2
Preverse
Bridge 1
Verse            4x
Pause 3 measures
Chorus 1         4x
Chorus 2         4x
Preverse
Intro 2
Preverse
Bridge 1
Verse            4x
Pause 3 meausres
Chorus 1         4x
Chorus 2         4x
Bridge 2         4x
Bridge 3         ?
Verse            4x
Chorus 1         4x
Chorus 2         4x
Bridge 2         4x
Bridge 3         ?
Verse            4x
Chorus 1         4x
Chorus 2         4x
End
Comments