Devildriver - Nothings Wrong Chords & Tabs

 

Nothings Wrong Chords & Tabs

Devildriver Chords & Tabs

Version: 1 Type: Bass Tab 0 ratings
1 star 2 stars 3 stars 4 stars 5 stars
comments

Nothings Wrong Bass Tab

   
Tuning: C, G, C, F

Intro
F|-----------|
C|-----------|
G|-----------|
C|-0~~---0~~-|

Intro/Verse
F|------------------------|
C|-------------------3----| x6
G|-5--3--0--2--4--2-----3-|
C|------------------------|

Chorus
F|---------------------------------|
C|---------------------------------| x4
G|---------------------------------|
C|-2-0-0-2-0-0-2-0-0-2-0-0-2-0-2-0-|

Add On
F|-------------------|
C|-------------------|
G|-------------------|
C|-12/16b/--0~~--0~~-|

Verse
F|------------------------|
C|-------------------3----| x4
G|-5--3--0--2--4--2-----3-|
C|------------------------|

Chorus
F|---------------------------------|
C|---------------------------------| x4
G|---------------------------------|
C|-2-0-0-2-0-0-2-0-0-2-0-0-2-0-2-0-|

Add On-2
F|-----------------|
C|-----------------|
G|-----------------|
C|-0~~~~~~~-16/1/5-|
[ Tab from: http://www.guitartabs.cc/tabs/d/devildriver/nothings_wrong_btab.html ]
Bridge
F|----------------------------------------------------|
C|----------------------------------------------------| x4
G|----------------------------------------------------|
C|-6--4-0-6--4-0-6--4-0-8-8--6--4-0-6--4-0-6--4-0-3-3-|

Chorus
F|---------------------------------|
C|---------------------------------| x3
G|---------------------------------|
C|-2-0-0-2-0-0-2-0-0-2-0-0-2-0-2-0-|

Bridge-2
F|----------------------|
C|----------------------|
G|----------------------|
C|-4--0--6-6--4--0--6-6-|

Chorus
F|---------------------------------|
C|---------------------------------| x3
G|---------------------------------|
C|-2-0-0-2-0-0-2-0-0-2-0-0-2-0-2-0-|

Bridge-3
F|------------------------|
C|------------------------| x4
G|------------------------|
C|-4--0--6-6--4--0--6-6-5-|

Chorus
F|---------------------------------|
C|---------------------------------| x3
G|---------------------------------|
C|-2-0-0-2-0-0-2-0-0-2-0-0-2-0-2-0-|

Add On-3
F|-------------|
C|-------------|
G|-------------|
C|-4r-----0~~~-|

Verse
F|------------------------|
C|-------------------3----| x4
G|-5--3--0--2--4--2-----3-|
C|------------------------|

Chorus/Outro
F|---------------------------------|
C|---------------------------------| x4
G|---------------------------------|
C|-2-0-0-2-0-0-2-0-0-2-0-0-2-0-2-0-|
Comments