Deviates - Come With Me Chords & Tabs

 

Come With Me Chords & Tabs

Deviates Chords & Tabs

Version: 1 Type: Bass Tab 0 ratings
1 star 2 stars 3 stars 4 stars 5 stars
comments

Come With Me Bass Tab

INTRO:
         
G:----------------|---------------------------------------- 
D:---7------------|---------------------------------------- 
A:-5--------------|-5(x16)------8(x16)--------------------- 
E:----------------|-------6(x16)------8(x16)---------------

VERSE:                                              
                                        
G:----------------------------------------------------------- 
D:------------------------------------------8888101010108888- 
A:--5(x16)------8(x16)------5(x16)------8888----------------- 
E:--------6(x16)------8(x16)------6(x16)---------------------  

G:--------------------------------------------------------- 
D:--------------------------------------------------------- 
A:--------------------------------------------------------- 
E:--88888-65555566-----------------------------------------
[ Tab from: http://www.guitartabs.cc/tabs/d/deviates/come_with_me_btab.html ]
CHORUS:
                     
G:------------------------------|--------------------------- 
D:------------------------------|--------------------------- 
A:--5(x8)-8(x8)-----------------|--2------------------------ 
E:--------------6-5(x7)-6-5(x7)-|---------------------------

2ND VERSE:
                 
G:---------------------------------|-------------------------- 
D:---------------------------------|-------------------------- 
A:--5(x16)--------------8(x8)------|-5(x16)------8(x16)------- 
E:--------6(x16)-5(x16)------8(x8)-|-------6(x16)------8(x16)-

ARRANGEMENT:
  INTRO
  VERSE
  CHORUS
  BRIDGE
  VERSE
  CHORUS
  BRIDGE
  INTRO
  2ND VERSE
  CHORUS
  BRIDGE

This is my first tab so fuck off if it is wrong. If anyone has any 
other tabs for Deviates, especially their 'Time Is The Distance' album,
please send to me at GCstar87@aol.com


Comments