Deviates - Chaos Chords & Tabs

 

Chaos Chords & Tabs

Deviates Chords & Tabs

Version: 1 Type: Tab 0 ratings
1 star 2 stars 3 stars 4 stars 5 stars
comments

Chaos Tab

   
Title: Chaos
Band: Deviates
Album: Warped Tour 2001
Tabbed by: Adam Newon
adamnewon@gmail.com

Great song. Deviates are probably one of my favorite bands of all time and this song has 
be one their best out there. Its unreleased on any of their CD's, so here it is. Enjoy.
You wont find better punk.

*=palm mute

Intro
e------------------------------------------------------------------------------|
B------------------------------------------------------------------------------|
G-99-999-999-999-99------------------------------------------------------------|
D-99-999-999-999-99-9-999-999-999-99-5-555-555-555-55-10-101010-1010-4-444-44--| x5
A-77-777-777-777-77-9-999-999-999-99-5-555-555-555-55-10-101010-1010-4-444-44--|
E-------------------7-777-777-777-77-3-333-333-333-33--8--8-8-8--8-8-2-222-22--|
                                                                     * *** ** <-(only on 3rd measure)

listen for timing change after 3rd measure

interlude
e----------------------------------------------|
B----------------------------------------------|
G-999------------------------------------------|
D-999--------999--------555-555----------------| x2
A-777-10-9-7-999-10-9-7-555-555-121212-9-10-9--|
E------------777--------333-333----------------|

verse 1
e-----------------------------------------|
B-----------------------------------------|
G-99-9999-99-9999-99-9999-99--------------|
D-99-9999-99-9999-99-9999-99--------------|
A-77-7777-77-7777-77-7777-77-1010-9--10-9-|
E-----------------------------------------|

verse 2
e-----------------------------------------|
B-----------------------------------------|
G-99-9999-99-9999-99-9999-99------7-------|
D-99-9999-99-9999-99-9999-99--------------|
A-77-7777-77-7777-77-7777-77-1010----10-9-|
E-----------------------------------------|


repeat verse 1


verse 3
e-----------------------------------------|
B-----------------------------------------|
G-99-9999-99-9999-99-9999-99--------------|
D-99-9999-99-9999-99-9999-99--------------|
A-77-7777-77-7777-77-7777-77-99-12-141414-|
E-----------------------------------------|
[ Tab from: http://www.guitartabs.cc/tabs/d/deviates/chaos_tab.html ]
chorus
e---------------------------------------------------|
B---------------------------------------------------|
G---------------------------------------------------|
D-99999-77777-55555-44444-77777-55555-444-444-444-4-|
A-99999-77777-55555-44444-77777-55555-444-444-444-4-|
E-77777-55555-33333-22222-55555-33333-222-222-222-2-|
                                          ***     *

repeat verse 1
repeat verse 2
repeat verse 1

verse 4
e-----------------------------------------------------|
B-----------------------------------------------------|
G-99999-------------------99999-----------------------|
D-99999-77777-55555-44444-99999-77777-55--------------|
A-77777-77777-55555-22222-77777-77777-55-99-12-141414-|
E-------55555-33333-22222-------55555-33--------------|

repeat chorus x2

verse 5
e-----------------------------------------------------------------------|
B-----------------------------------------------------------------------|
G-----------------------------------------------------------------------|
D-99-999-999-999-99-7-777-777-777-77-5-555-555-555-55-4-444-444-444-44--| x2
A-99-999-999-999-99-7-777-777-777-77-5-555-555-555-55-4-444-444-444-44--|
E-77-777-777-777-77-5-555-555-555-55-3-333-333-333-33-2-222-222-222-22--|
                                                                    **(only on 2nd measure)

pause for a while and give some feedback occasionaly.

(...blood turns up red)
e----------------------------|
B----------------------------|
G----------------------------|
D-5----9----12----9--444-444-|
A-5----9----12----9--444-444-|
E-3----7----10----7--222-222-|

e---------------------------------------|
B---------------------------------------|
G-999-----------------------------------|
D-999--------999--------5555-55-4444-44-|
A-777-10-9-7-999-10-9-7-5555-55-4444-44-|
E------------777--------3333-33-2222-22-|

(screaming)
e---------------------------|
B---------------------------|
G-99999999999999999999999999
D-99999999999999999999999999
A-77777777777777777777777777
E---------------------------

e--------------------------------------|
B--------------------------------------|
G--------------------------------------|
D-99999999-77777777-55555555-44444444--| x2
A-99999999-77777777-55555555-44444444--|
E-77777777-55555555-33333333-22222222--|

repeat chorus

Outro
e-----------------------------------------------------------|
B-----------------------------------------------------------|
G-----------------------------------------------------------|
D-99999-77777-55555-44444-77777-55555-444-444-444-444-444-4-|
A-99999-77777-55555-44444-77777-55555-444-444-444-444-444-4-|
E-77777-55555-33333-22222-55555-33333-222-222-222-222-222-2-|
                                          ***     ***
Comments