Devendra Banhart - Water May Walk Chords & Tabs

 

Water May Walk Chords & Tabs

Devendra Banhart Chords & Tabs

Version: 1 Type: Tab 0 ratings
1 star 2 stars 3 stars 4 stars 5 stars
comments

Water May Walk Tab

Artist: devendra banhart
Song: water may walk
Album: nino rojo (2004)

e -----------------------------------------------------|
B ------------------------------------------------0----|
G ---------0-----------0------------0-----------0---0--|
D ----2-----------3------3------2----------3-----------|
A --3----3----3-5----5----(5)-3---3----3-5----5--------|
E -----------------------------------------------------|

e --------------------------------------------|
B --------------------------------------------|
G ---------0----------0---------0----------0--|
D ----2---------3----------2---------3--------|
A --3----3----5----5-----3----3----5----5-----|
E --------------------------------------------|

e ------------------------------------------------------------|
B -------------------------------------------------------0----|
G --------0-----------------0----------------0---------0---0--|
D -----2-----2-----2-----3-----3---------2--------3-----------|
A --3-----------3-----5-----------5---3----3----5----5--------|
E ------------------------------------------------------------|

e --------------------------------------------|
B --------------------------------------------|
G ---------0----------0---------0----------0--|
D ----2---------3----------2---------3--------|
A --3----3----5----5-----3----3----5----5-----|
E --------------------------------------------|

e --------------------------------------------|
B ---------------------------------------0----|
G --------0--------0---------0---------0---0--|
D -----2--------3--------2--------3-----------|
A --3--------5--------3----3----5----5--------|
E --------------------------------------------|

e --------------------------------------------|
B --------------------------------------------|
G ---------0----------0---------0----------0--|
D ----2---------3----------2---------3--------|
A --3----3----5----5-----3----3----5----5-----|
E --------------------------------------------|

e ----------------------------------------------------------------------|
B -----------------------------------------0------------------------0---|
G --------0--------0---------0-----------0---0---------0----------0---0-|
D -----2--------3--------2----------3-------------2----------3----------|
A --3--------5--------3----3---0--5----5--------3----3---3-5----5-------|
E ----------------------------------------------------------------------|

e --------------------------------------------|
B ----------------------------------------0---|
G ---------0----------0---------0-------------|
D ----2---------3----------2---------3--------|
A --3----3----5----5-----3----3----5----5-----|
E --------------------------------------------|
e --------------------------------------------|
B --------------------------------------0-----|
G ------------------------0-----------0---0---|
D -----2----2----3----2----------3------------|
A --3-----3---5----3----3---0--5----5---------|
E --------------------------------------------|
[ Tab from: http://www.guitartabs.cc/tabs/d/devendra_banhart/water_may_walk_tab.html ]
e --------------------------------------------|
B --------------------------------------------|
G ---------0----------0---------0----------0--|
D ----2---------3----------2---------3--------|
A --3----3----5----5-----3----3----5----5-----|
E --------------------------------------------|

e ----------------------------------------------|
B -----------------------------------------0----|
G --------0--------0---------0-----------0---0--|
D -----2--------3--------2----------3-----------|
A --3--------5--------3----3---0--5----5--------|
E ----------------------------------------------|

e --------------------------------------------|
B --------------------------------------------|
G ---------0----------0---------0----------0--|
D ----2---------3----------2---------3--------|
A --3----3----5----5-----3----3----5----5-----|
E --------------------------------------------|

e ----------------------------------------------------------------------|
B -----------------------------------------0------------------------0---|
G --------0--------0---------0-----------0---0---------0----------0---0-|
D -----2--------3--------2----------3-------------2----------3----------|
A --3--------5--------3----3---0--5----5--------3----3---3-5----5-------|
E ----------------------------------------------------------------------|


e --------------------------------------------|
B --------------------------------------------|
G ---------0----------0---------0----------0--|
D ----2---------3----------2---------3--------|
A --3----3----5----5-----3----3----5----5-----|
E --------------------------------------------|

e ------------------------------------------|
B ------------------------------------------|
G --------0--------0---------0-----------0--|
D -----2--------3--------2----------3-------|
A --3--------5--------3----3---0--5----5----|
E ------------------------------------------|
                                                 (3:02)
e ------------------------------------------  e ----3---3--------------|
B ------------------------------------------  B --5---3---33-1-3-1-----|
G -----------0-----------0------------------  G -----------------------|
D ------2-----------3------3----------------  D -----------------------|
A --0-3----3---0--5----5-----5-3------------  A -----------------------|
E ------------------------------------------  E -----------------------|

Water may walk
Daughter may walk
Mother may walk
Father may walk
Marth feel asleep in a perfect fire

Water in hands
Mother in hands
Brother in hands
Held in the hands
Of one million bending bones

I know its name
You know its name
Never above
Never above
One thousand mending moans

The fire inside
The silver inside
The hollow inside
The echo inside
The red setting sun inside

The earth has its eyes
The sea has eyes too
Brown mother eyes
Blue mother blue
And eyes are the stems of space

Mother may grow
Daughter may grow
Father may grow
And swallow the seed
Of trees in the chest of my mind

I've got some to give
I've like to give some
Love will still live
When our time is done
And earth be light, be light


Words and music by Devendra Banhart
Transcribed by ear, all my own work.
Good Luck
Campbell
Comments