Devendra Banhart - Todo Los Dolores Chords & Tabs

 

Todo Los Dolores Chords & Tabs

Devendra Banhart Chords & Tabs

Version: 1 Type: Tab 0 ratings
1 star 2 stars 3 stars 4 stars 5 stars
comments

Todo Los Dolores Tab

Todo Los Dolores
Devendra Banhart
Like a fox (EADGBE)

i believe theres two guitars, if not perhaps try tuning the A string to C and play a 
bass troughout the guitar 2, naturally adjust yourselfs.

guitar 1
-----------------------------------------------------|
---1---1---------------------------------------------|
---0---0---------------------------------------------|
-----2-----------------------------------------------|
-3---------------------------------------------------|
-----------------------------------------------------|
repeat
[ Tab from: http://www.guitartabs.cc/tabs/d/devendra_banhart/todo_los_dolores_tab.html ]
guitar 2
-----------------------------------------------------|
-----6-5---------------------------------------------|
-5-7-----7-5-4-7-5-----------------------------------|
-----------------------5-5-5-5-7-5-----------5-7-5-9-|
-----------------------------------7-3-3-3-3---------|
-----------------------------------------------------|
	x2		   	      x1

-7-7---7-7---7---------7---------7-------------------|
-8-8---8-8---8---------8---------8---------1---1-----|
-7-7---7-7---7---------7---------7---------0---0-----|
-9-9---9-9---9-5-7-5---9-5-7-5-9-9-5-7-5-----2-------|
---------------------3-------------------3-----------|
-----------------------------------------------------|

The Grandest Almond
Comments