Devendra Banhart - Little Yellow Spider Chords & Tabs

 

Little Yellow Spider Chords & Tabs

Devendra Banhart Chords & Tabs

Version: 1 Type: Tab 0 ratings
1 star 2 stars 3 stars 4 stars 5 stars
comments

Little Yellow Spider Tab

This isn't the entire part but more is the main line for the verses etc.
This is my first tab so please excuse it. Any additions or comments to ainskins@hotmail.com
Have fun!
----------------------------------------------------------------------------
Devendra Banhart - Little Yellow Spider
----------------------------------------------------------------------------

Chord - Open D- 000232
[ Tab from: http://www.guitartabs.cc/tabs/d/devendra_banhart/little_yellow_spider_tab.html ]
e|------------------------------------------2-------------------------------|
A|----------3----------3---------3------------------------------------------|
D|----2-2h4------2-2h4-----2-2h4------2-2h4---------------------------------|
G|--0----------0---------0----------0---------------------------------------|
B|--------------------------------------------------------------------------|
E|--------------------------------------------------------------------------|
Comments