Devendra Banhart - Body Breaks Chords & Tabs

 

Body Breaks Chords & Tabs

Devendra Banhart Chords & Tabs

Version: 2 Type: Tab 0 ratings
1 star 2 stars 3 stars 4 stars 5 stars
comments

Body Breaks Tab

The body breaks
Devendra Banhart

finger picking
a well tuned (EADGBE)

intro--
-------9------------------7-----------------5-----5s7sp0--------2------------|
-7---------7--------5---------5-------3---------3---------2---------2--------|
---6----------(6)-----6----------(6)----4-------------------2----------(2)---|
-7---7---7---7------6---6---6---6-----4---4---4-----------2---2---2---2------|
-----------------------------------------------------------------------------|
-----------------------------------------------------------------------------|

   10sec
-------9------------------7-----------------5-----5s7sp0---------------------|
-----7-----7------------5-----5-----------3-----3---------2-----2------------|
---6----------(6)-----6----------(6)----4-------------------2-------2--(2)---|
-7---7---7---7------6---6---6---6-----4---4---4-----------2---2---2---2------|
-----------------------------------------------------------------------------|
-----------------------------------------------------------------------------|

-----------------------------------------------------------------------------|
-2h3-----3---------2-----5-------2h3-----3---------2-----5-------2-----------|
-2---2-------2-------2-------2---2---2-------2-------2-------2-------2-------|
-------2---2---2---2---2---2---2-------2---2---2---2---2---2---2---2---2-----|
-----------------------------------------------------------------------------|
-----------------------------------------------------------------------------|
[ Tab from: http://www.guitartabs.cc/tabs/d/devendra_banhart/body_breaks_tab_ver_2.html ]
wilst singing--
-------9------------------7-----------------5--------------------------------|
-----7-----7------------5-----5-----------3-----3---------2-----2------------|
---6----------(6)-----6----------(6)----4-----------(4)-----2-------2--(2)---|
-7---7---7---7------6---6---6---6-----4---4---4---4-------2---2---2---2------|
-----------------------------------------------------------------------------|
-----------------------------------------------------------------------------|

-------9------------------7-----------------5--------------------------------|
-----7-----7------------5-----5-----------3-----3---------2-----2------------|
---6----------(6)-----6----------(6)----4-----------(4)-----2-------2--(2)---|
-7---7---7---7------6---6---6---6-----4---4---4---4-------2---2---2---2------|
-----------------------------------------------------------------------------|
-----------------------------------------------------------------------------|

-----------------------------------------------------------------------------|
--2h3-----3---------2-----5-------2h3-----3---------2------------------------|
--2---2-------2-------2-------2---2---2-------2------------------------------|
--------2---2---2---2---2---2---2-------2---2---2---2------------------------|
-----------------------------------------------------------------------------|
-----------------------------------------------------------------------------|

The body breaks and the body is fine
And i am open to yours and i am open to mine
The body acks and that ack take it's time
But you'll get over yours and i will get over mine

And the sun will shine and the moon will rise

The body calls, ya the body a calls out
It wispers at first but it ends with a shout
The body burns ya the body a burns strong
Till mine is with yours and mine will burn on
My flesh sings out it sings come put me out

The body sways like the wind on a swing
A bridge through a hoop or a lake through a ring
the body stays and then the body moves on
and i'd really rather not dwell on when yours willl be gone
but within the dark there is a shine
one tiny spark
Thats yours and mine


The Grandest Almond
Comments