Devendra Banhart - Body Breaks Chords & Tabs

 

Body Breaks Chords & Tabs

Devendra Banhart Chords & Tabs

Version: 1 Type: Tab 0 ratings
1 star 2 stars 3 stars 4 stars 5 stars
comments

Body Breaks Tab

The song consists of 4 chords arranged in two riffs
i don't know the picking pattern, so i'll just give the chords

(riff 1)
[ Tab from: http://www.guitartabs.cc/tabs/d/devendra_banhart/body_breaks_tab.html ]
e---9---7---5(occasionally slides to 7)--0--|
b---7---5---3----------------------------2--|
g---6---6---4----------------------------2--|
d---7---6---4----------------------------2--|
a-------------------------------------------|
e-------------------------------------------|

(riff 2)

e--5/7--0--|
b--3----2--|
g--4----2--|
d--4----2--|
a----------|
e----------|
Comments