Devendra Banhart - Bluebird Chords & Tabs

 

Bluebird Chords & Tabs

Devendra Banhart Chords & Tabs

Version: 1 Type: Tab 0 ratings
1 star 2 stars 3 stars 4 stars 5 stars
comments

Bluebird Tab

   
Artist: Devendra Banhart
Song: Bluebird
Tuning: Standard
 
Original Tab by Jack Poupart,
 
Chords used:
 
D7:   xx0212
G?:   xxx001

 
Intro (accidental brush of strings)
    
   D7                            
 
e|--2-2-----2--|
B|-1---1-------|
G|------2------|
D|--------0----|
A|-------------|
E|-------------|

Verse 1

    D7

e|--2--2--2--2-|
B|--1--1--1--1-|
G|--2--2--2--2-|
D|-------------| x4
A|-------------|
E|-------------|
 
   My baby is a red bird..
   My baby is a blue bird....

    G?

e|-2/1-1--1--1------|
B|-0----0--0--0-----|
G|-0-----0--0--0----|x2(rythmn here is a flutter of notes for 2 bars)
D|------------------|
A|------------------|
E|------------------|

  Your feathers want to.... 
  your feathers want to tickle me ,

    D7
[ Tab from: http://www.guitartabs.cc/tabs/d/devendra_banhart/bluebird_tab.html ]
e|--2---2--2--2--|--0-0/2---0-0/2-|
B|--1---1--1--1--|--1--1----1--1--|
G|--2---2--2--2--|--2--2----2--2--|
D|---------------|----------------|
A|---------------|----------------|
E|---------------|----------------|

   yeh.
Verse 2


    D7

e|--2--2--2--2-|
B|--1--1--1--1-|
G|--2--2--2--2-|
D|-------------| x4
A|-------------|
E|-------------|
  
   In the shower...
    Its freezin water....

    G?                             D7

e|-2/1--1--1--1---|-1--1--1--1--|--2--2--2--2--|--2--2--2--2--|
B|-0----0--0--0---|-0--0--0--0--|--1--1--1--1--|--1--1--1--1--|
G|-0----0--0--0---|-0--0--0--0--|--2--2--2--2--|--2--2--2--2--|
D|----------------|-------------|--------------|--------------|
A|----------------|-------------|--------------|--------------|
E|----------------|-------------|--------------|--------------|


Its all pretty easy and continues for another verse.
Comments