Devendra Banhart - At The Hop Chords & Tabs

 

At The Hop Chords & Tabs

Devendra Banhart Chords & Tabs

Version: 1 Type: Tab 0 ratings
1 star 2 stars 3 stars 4 stars 5 stars
comments

At The Hop Tab

Artist: devendra banhart
Song: at the hop
Album: nino rojo (2004)

e -------0----------------0-----------0---------------0---------------|
B ---------1------------1----1----------1-----------1----1------------|
G --0--------0--------2--------2p0--------0-------2--------2p0--------|
D -------------2p0--3-----------------------2p0-3---------------------|
A ----3----------------------------3----------------------------------|
E --------------------------------------------------------------------|

e ------0---------------0-----------0---------------0-----------------|
B --------1-----------1----1----------1-----------1----1--------------|
G ----------0-------2--------2p0--------0-------2--------2p0----------|
D ------------2p0-3-----------------------2p0-3-----------------------|
A ---3---------------------------3------------------------------------|
E --------------------------------------------------------------------|

e ------0---------------0--------------0-------------0----------------|
B --------1-----------1----1---------1---1---------1---1--------------|
G ----------0-------2--------2p0---2-------2p0---2-------2p0----------|
D ------------2p0-3----------------------------3----------------------|
A ---3---------------------------0------------------------------------|

E --------------------------------------------------------------------|
e ---------0-------------0-------------0-------------0----------------|
B -------1---1---------1---1---------1---1---------1---1--------------|
G -----0-------0-----2-------2-0---0-------0-----2-------2-0----------|
D ---------------2-3-------------------------2-3----------------------|
A ---3---------------------------3------------------------------------|
E --------------------------------------------------------------------|

e ---------0-------------0-------------0-------------0----------------|
B -------1---1---------1---1---------1---1---------1---1--------------|
G -----0-------0-----2-------2-0---2-------2p0---2-------2-0----------|
D ---------------2-3---------------------------3----------------------|
A ---3---------------------------0------------------------------------|
E --------------------------------------------------------------------|

e ---------0-------------0-------------0-------------0----------------|
B -------1---1---------1---1---------1---1---------1---1--------------|
G -----0-------0-----2-------2-0---0-------0-----2-------2-0----------|
D ---------------2-3-------------------------2-3----------------------|
A ---3---------------------------3------------------------------------|
E --------------------------------------------------------------------|

e -----------------------------------------3--------------3-----------|
B ---------1-------1-------1-------1-----3----3---------3---3---------|
G -------2-------2-------2-------2-----4--------4-----4-------4-------|
D -----2-------2-------2-------2-----5------------5-5-----------5-----|
A ---0-------0-------0-------0----------------------------------------|
E --------------------------------------------------------------------|

e ---------5--------------5--------------5--------3----3--------------|
B -------3----3---------3----3---------3----3-----3-------3-----------|
G -----2--------2-----2--------2-----2--------2---4---------4---------|
D ---0------------0-0------------0-0------------0-5--5--------5-------|
A --------------------------------------------------------------------|
E --------------------------------------------------------------------|

e ---------0-------------0-------------0-------------0----------------|
B -------1---1---------1---1---------1---1---------1---1--------------|
G -----0-------0-----2-------2-0---2-------2p0---2-------2-0----------|
D ---------------2-3---------------------------3----------------------|
A ---3---------------------------0------------------------------------|
E --------------------------------------------------------------------|

e ---------0-------------0-------------0-------------0----------------|
B -------1---1---------1---1---------1---1---------1---1--------------|
G -----0-------0-----2-------2-0---0-------0-----2-------2-0----------|
D ---------------2-3-------------------------2-3----------------------|
A ---3---------------------------3------------------------------------|
E --------------------------------------------------------------------|
[ Tab from: http://www.guitartabs.cc/tabs/d/devendra_banhart/at_the_hop_tab.html ]
e ---------0-------------0-------------0-------------0----------------|
B -------1---1---------1---1---------1---1---------1---1--------------|
G -----0-------0-----2-------2-0---2-------2p0---2-------2-0----------|
D ---------------2-3---------------------------3----------------------|
A ---3---------------------------0------------------------------------|
E --------------------------------------------------------------------|

e ---------0-------------0-------------0-------------0----------------|
B -------1---1---------1---1---------1---1---------1---1--------------|
G -----0-------0-----2-------2-0---0-------0-----2-------2-0----------|
D ---------------2-3-------------------------2-3----------------------|
A ---3---------------------------3------------------------------------|
E --------------------------------------------------------------------|

e -----------------------------------------3--------------3-----------|
B ---------1-------1-------1-------1-----3----3---------3---3---------|
G -------2-------2-------2-------2-----4--------4-----4-------4-------|
D -----2-------2-------2-------2-----5------------5-5-----------5-----|
A ---0-------0-------0-------0----------------------------------------|
E --------------------------------------------------------------------|

e ---1---------3-----------------0---------------0-------0---0--------|
B ---3---------3-------------------1-----------1---1-----1---1--------|
G ---2---------4---------------------0-------2-------2p0-2---2--------|
D ---0---------5-----------------------2p0-3-------------2---3--------|
A ----------------------------3--------------------------0------------|
E --------------------------------------------------------------------|

e ---------------------0-------------0-------------0------------------|
B -----1--------1----1---1---------1---1---------1---1----------------|
G --------0---0----2-------2-----0-------0-----2-------2--------------|
D ----------2----3-----------3-------------2-3-----------3------------|
A ---3-------------------------3--------------------------------------|
E --------------------------------------------------------------------|

e ---------0-------------0-------0---0----------------------0---------|
B -------1---1---------1---1-----1---1--------------------1---1-------|
G -----0-------0-----2-------2---2---2------------------0-------0-----|
D ---------------2-3-----------3-2---3----------------------------2---|
A ---3---------------------------0--------------------3---------------|
E --------------------------------------------------------------------|

e ---------0-------------0-------------0-------------0--------------0-|
B -------1---1---------1---1---------1---1---------1---1----------1---|
G -----2-------2-----0-------0-----2-------2-----0-------0------2-----|
D ---3-----------3-------------2-3-----------3-------------2--3-------|
A -----------------3---------------------------3----------------------|
E --------------------------------------------------------------------|

e --------------0-------------0---------0--------------0--------------|
B --1---------1---1---------1---1-------1--1---------1---1------------|
G ----2-----2-------2p0---2-------2----------0-----2-------2p0--------|
D ------3---------------3-----------3----------2-3--------------------|
A --------0---------------------------3-------------------------------|
E --------------------------------------------------------------------|

e -----0----------0----------0----------------------------------------|
B -----1--1-------1--1-------1----------------------------------------|
G ----------0----------2----------------------------------------------|
D ------------2-3--------3--------------------------------------------|
A ---3---------------------3------------------------------------------|
E --------------------------------------------------------------------|


Put me in your suitcase, let me help you pack
Cuz you're never coming back, no you're never coming back


Cook me in your breakfast and put me on your plate
Cuz you know I taste great, yeah you know I taste great

At the hop it's greaseball heaven
With candypants and a
Put me in your dry dreams or put me in your wet
If you haven't yet, no if you haven't yet
Light me with your candle and watch the flames grow high
No it doesn't have to try, it doesn't have to try
Well I won't stop all of my pretending that you'll come home
You'll be coming home, someday soon
Put me in your blue skies or put me in your gray
There's gotta be someway, there's gotta be someway
Put me in your tongue tie, make it hard to say
That you ain't gonna stay, that you ain't gonna stay
Write my in your marrow, stuff me in your bones
Sing a mending moan, a song to bring you home


Music and Lyrics written by Devendra Banhart
Transcribed by ear, all my own work.
Good Luck
Campbell
Comments