Dev - In The Dark Accoustic Chords & Tabs

 

In The Dark Accoustic Chords & Tabs

Dev Chords & Tabs

Version: 1 Type: Tab 0 ratings
1 star 2 stars 3 stars 4 stars 5 stars
comments

In The Dark Accoustic Tab

   
Artist: Dev
Song: In the Dark (accoustic)
Tabber: Raphael Couzet
Tuning: Standard
Capo on 1st fret

Chords used

   B7 D  A  F#
|--2--2--2--9---|-
|--3--3--2--11--|-
|--2--2--2--11--|-
|--4--0--2--11--|-
|--2-----0--9---|-
|---------------|-


Riff 1 
|----------------------------------------------------|-
|--------------------------------------2h3p2h3p2h3p2-|-
|--4------------------2-4----------------------------|-
|----4--------------------4--------------------------|-
|------4-5-------4-5--------4-5----------------------|-
|----------2-3-3----------------2-3-3----------------|-


Intro:
Based on the chords above
|----------2-------2-2-0-0-|-
|--------3---3-----3-3-2-2-|-
|------2-------2---2-2-2-2-|-
|----4-----------4-0-0-2-2-|-
|--2-------------------0-0-|-
|--------------------------|-


Lyrics:

B7           D       A
On my waist, through my hair
Think about it when you touch me there
Close my eyes, here you are
All alone dancing in the dark

Tell me baby if it's wrong
To let my hands do what they want
Late at night I pretend we are
B7     B7     B7 B7    D              F#--------
Dance, dance, da-dance dancing in the dark

Riff 1
Dancing in the dark, 
B7              D       A
ooh la la, ooh la la, ooh la la dancing in the dark.
[ Tab from: http://www.guitartabs.cc/tabs/d/dev/in_the_dark_accoustic_tab.html ]
B7              D       A
Can you work on me
Open my body up and do some surgery
Now that you got me up, I wanna taste it, taste it
And see those pocket aces

B7                       D / / / /      A / / / /
I wanna see who you are, I got a sex drive just push to start [x3]
Push push push push to start
I got a sex drive just push to start.

B7           D       A
On my waist, through my hair
Think about it when you touch me there
Close my eyes, here you are
B7     B7     B7 B7    D              F#--------
Dance, dance, da-dance dancing in the dark

Riff 1

B7      D       A
Ooh la la, Ooh la la, Ooh la la dancing in the dark
Ooh la la, ooh la la, ooh la la dancing in the dark.

B7      D       A
I love to flirt to see, I'm only talking to you
If you wanna surf my seas, now that you got me boy
You know you better spice it flavour it
Get it get it right, savour it

B7                       D / / / /      A / / / /
I wanna see who you are, I got a sex drive just push to start [x3]
Push push push push to start
I got a sex drive just push to start.

On my waist, through my hair
Think about it when you touch me there
Close my eyes, here you are
All alone dancing in the dark

Tell me baby if it's wrong
To let my hands do what they want
Late at night I pretend we are
Dance, dance, da-dance, dancing in the dark
Comments