Deus - Supermarketsong Chords & Tabs

 

Supermarketsong Chords & Tabs

Deus Chords & Tabs

Version: 1 Type: Bass Tab 0 ratings
1 star 2 stars 3 stars 4 stars 5 stars
comments

Supermarketsong Bass Tab

Supermarketsong 

-----
Bass
-----

Tab by Avi

Verse - 
G|-----|-----|-----|-----|
D|-----|-----|-----|-----|
A|-5-5-|-----|-----|-7-7-|
E|-----|-5-5-|-7-7-|-----|

Bridge - 
G|-------|------|
D|-------|------|
A|-10...-|-5...-|
E|-------|------|
[ Tab from: http://www.guitartabs.cc/tabs/d/deus/supermarketsong_btab.html ]
Chorus ("some people...") - 
G|-------------------------|-------|--------------------------|
D|---------4-2----------4--|-------|-----------4-2---------4--|
A|-0-4-3-2------0-4-3-2----|-------|--0-4-3-2-----0-4-3-2-----|
E|-------------------------|-0-2-4-|--------------------------|
                           | sax   |

through the saxophone solo just play the verse 

...and that's all :-)
Comments