Deus - Mute Chords & Tabs

 

Mute Chords & Tabs

Deus Chords & Tabs

Version: 2 Type: Bass Tab 0 ratings
1 star 2 stars 3 stars 4 stars 5 stars
comments

Mute Bass Tab

Mute - dEUS

original tab by Lisa Eriksson & Avi
Uploaded by ItzikG (itzik@manics.co.il)

Intro -
G|-----------|----------------|----------|-----------------|
D|--------11-|-11-------7/9-7-|--------8-|-8-------5/7-5---|
A|-----------|----------------|-9--------|---------------7-|
E|-7/9-9-----|-----7-7--------|---6-6----|----5-5----------|

Verse (when tom begins singing) -
G|-----------|----------------|----------|-----------------|
D|--------11-|-11-------7/9-7-|--------8-|-8-------5/7-5---|
A|-----------|----------------|-9--------|---------------7-|
E|-7/9-9-----|-----7-7--------|---6-6----|----5-5----------|
...play two times
[ Tab from: http://www.guitartabs.cc/tabs/d/deus/mute_btab_ver_2.html ]
then -
G|-----------|------------|-----------|-----------------|
D|--------11-|-11-------9-|-9-------7-|---6---6---6---6-|
A|-----------|------------|-----------|-----------------|
E|-7/9-9-----|-----7-7----|----5-5----|-4---4---4---4---|

Chorus -
G|-----------|----------|---------|-----------|---|-----------------|
D|-----11-11-|------9-9-|-------7-|-7-5-------|---|---6---6---6---6-|
A|-----------|----------|---------|-----7-5---|-5-|-----------------|
E|-9-9-9-----|-7-7-7----|-5-5-5---|---------7-|---|-4---4---4---4---|

Bridge (?Calling me high...?) -
G|-----------|----------|---------|-----------|
D|-----11-11-|------9-9-|-------7-|-7-5-------|
A|-----------|----------|---------|-----7-5---|
E|-9-9-9-----|-7-7-7----|-5-5-5---|---------7-|
...repeat this riff and then do one time the chorus and that?s it


gREAT or what !?
Comments