Deus - Morticiachair Chords & Tabs

 

Morticiachair Chords & Tabs

Deus Chords & Tabs

Version: 2 Type: Bass Tab 0 ratings
1 star 2 stars 3 stars 4 stars 5 stars
comments

Morticiachair Bass Tab

   
Morticiachair - dEUS
original tab by Avi
Uploaded by ItzikG (itzik@manics.co.il)


It's pretty much like the other one loaded here but with changes.
Pay attention to them:


first bit is where tom goes “I got no...” - 
G|---------|
D|---------|
A|---7-7---|
E|---------|

then this (“drop the phone...”) - 
G|----15-------16-------15-------13-|
D|-13----13-14----14-13----13-11----|
A|----------------------------------|
E|----------------------------------|

Chorus - 
G|-----------|
D|-----------|
A|-2-2-2-5-6-|
E|-----------|

Bit after the first chorus -  
G|-----------------|
D|----------12-----|
A|-12-13h14-----14-|
E|-----------------|
[ Tab from: http://www.guitartabs.cc/tabs/d/deus/morticiachair_btab_ver_2.html ]
Second verse bass - 
G|-11h12p11----|--------|-------|
D|----------12-|--------|-------|
A|-------------|--------|-5-6-7-|
E|-------------|-12-12/-|-------|

Chorus - 
G|-----------|
D|-----------|
A|-2-2-2-5-6-|
E|-----------|

Bridge (“taste of orange...”) - 
G|-----------------|-----------------|-----------------|
D|-----------------|-----------------|-----------------|
A|-3-3-3-3-3-3-3-3-|-2-2-2-2-2-2-2-2-|-3-3-3-3-3-3-3-3-|
E|-----------------|-----------------|-----------------|

Chorus - 
G|-----------|
D|-----------|
A|-2-2-2-5-6-|
E|-----------|

Outro - 
G|-------------------------|
D|----15-14----12----------|
A|-14-------14----14-12h14-|
E|-------------------------|

Stef is a Genius or what ?!

Comments