Deus - Jigsaw You Chords & Tabs

 

Jigsaw You Chords & Tabs

Deus Chords & Tabs

Version: 4 Type: Bass Tab 0 ratings
1 star 2 stars 3 stars 4 stars 5 stars
comments

Jigsaw You Bass Tab

Jigsaw You - dEUS
(the other file loaded here is not completly correct)

original tab by Avi
Uploaded and improved by ItzikG (itzik@manics.co.il)

Intro -
G|----------|
D|----------|
A|-2-2-2...-|
E|----------|

G|-------------11-------11-10-9-|-9-9-9-9-|-9-----11-|--------11-|
D|------------------------------|---------|----------|-----------|
A|-2-2-3-5-10-----10-10---------|---------|----10----|-10-10-----|
E|------------------------------|---------|----------|-----------|

G|------|------9---|------|-------|-------|-----------|
D|------|----9-----|------|-------|-------|-----------|
A|-10-8-|-8------8-|-8-10-|-10-10-|-10-10-|-10--------|
E|------|----------|------|-------|-------|----7-8-10-|
[ Tab from: http://www.guitartabs.cc/tabs/d/deus/jigsaw_you_btab_ver_4.html ]
G|-----11-------11-10-9-|-9-9-9-9-|-9-----11-|--------11-|------|
D|----------------------|---------|----------|-----------|------|
A|-10-----10-10---------|---------|----10----|-10-10-----|-10-8-|
E|----------------------|---------|----------|-----------|------|

G|------9----|
D|----9------|
A|-8------8/-|
E|-----------|

Verse (when tom starts to sing) -
G|---|-------|------|------|----------------|----------------|-----|
D|---|-------|------|------|----------------|-------12/14-12-|-----|
A|---|-------|------|------|-12h14-14-14/17-|-12h14----------|-14/-|
E|-7-|-7-7-7-|-7...-|-7/10-|----------------|----------------|-----|
...twice

G|------|------|------|------|
D|------|------|------|------|
A|------|------|------|------|
E|-7-..-|-3...-|-5...-|-3...-|

and this genius part just repeats itself...
Comments