Deus - Jigsaw You Chords & Tabs

 

Jigsaw You Chords & Tabs

Deus Chords & Tabs

Version: 1 Type: Bass Tab 0 ratings
1 star 2 stars 3 stars 4 stars 5 stars
comments

Jigsaw You Bass Tab

dEUS - Jigsaw you (bass)

Intro
E|---|-------------|
A|-2-|-2-2-2--2-2--|
D|---|-------------|
G|---|-------------|7x

E|------------|-------------------------------------------------------3--3-3--3-3-|
A|-2-3-5-5-10-|---10-10-------------------10----10-10----10-8-8-------------------|
D|------------|-------------------------------------------------10-10-------------|
G|------------|11-------11-10-9--9-9-9--9----11-------11----------9---------------|

E|-3----------|---------------------------------------------------------|
A|---2-3-5-10-|---10-10-------------------10----10-10----10-8-8-------2-|
D|------------|-------------------------------------------------10-10/--|
G|------------|11-------11-10-9--9-9-9--9----11-------11----------9-----|
[ Tab from: http://www.guitartabs.cc/tabs/d/deus/jigsaw_you_btab.html ]
Fifty six falcon...
Jigsaw you, how...
2x
E|--------------------------------------------|
A|-2-2-2--2-2--2-2-2--2-5-----------5---------|
D|------------------------7-9-7-9-----7-9-----|
G|--------------------------------7-------9-7-|

Thinking of a parallel...
E|-------------3--3-3-3--3-5--5-5-5--5-5--5-5-5--5-3---------|
A|-2--2-2-2--2-----------------------------------------------|
D|-----------------------------------------------------------|
G|-----------------------------------------------------------|

3x
E|----------|-------------------------------------------------------3-|
A|-2-3-5-10-|---10-10-------------------10----10-10----10-8-8---------|
D|----------|-------------------------------------------------10-10---|
G|----------|11-------11-10-9--9-9-9--9----11-------11----------9-----|

End
E|-------|
A|-10----|
D|-------|
G|----11-|
Comments