Deus - Dream Sequence Chords & Tabs

 

Dream Sequence Chords & Tabs

Deus Chords & Tabs

Version: 1 Type: Bass Tab 0 ratings
1 star 2 stars 3 stars 4 stars 5 stars
comments

Dream Sequence Bass Tab

   
----------------------------------------------------------------------------
			     SONG NAME - Band Name
----------------------------------------------------------------------------

Tabbed By : StevieB
e-mail: steeeeeve13@hotmail.com

Tuning: Standard EADG

Absolutely fantastic song, my first attempt aty tabbing it..

Long pause before bass comes in, quiet bass after 1:03 "give me time..."
VERSE
G|-------------------------------------------------------------------------|
D|-------------------------------------------------------------------------|
A|-5--5-5--5-3--3-3-3------------------------------------------------------|
E|--------------------3--3-3--3-3--3--3------------------------------------|

Then break.. 1:40 "but i didnt..."
BREAK
G|-------------------------------------------------------------------------|
D|-3----3-5----3/12---3/10----3-----3-5----3/12---3/10---------------------|
A|-------------------------------------------------------------------------|
E|-------------------------------------------------------------------------|
[ Tab from: http://www.guitartabs.cc/tabs/d/deus/dream_sequence_btab.html ]
Back to verse, slightly different timing
VERSE 2
G|-------------------------------------------------------------------------|
D|-------------------------------------------------------------------------|
A|-5--555-5-3-3-3-3--------------------------------------------------------|
E|-----------------3-333-333-3-3-------------------------------------------|

Another break then at 2:52 "give me peace o mind"
INTERLUDE
G|-------2-222-222-2---------22-222----------------------------------------|
D|-4-44-4------------4-444-4--------2-22-22-2-2----------------------------|
A|-------------------------------------------------------------------------|
E|-------------------------------------------------------------------------|

and again but different end
G|--------2-222-222---------2/9--------------------------------------------|
D|-4-44-4-----------4-444-4------------------------------------------------|
A|-------------------------------------------------------------------------|
E|-------------------------------------------------------------------------|

OUTRO
G|-------------------------------------------------------------------------|
D|-------------------------------------------------------------------------|
A|-5-555-555-55-8-888-888-88-----------------------------------------------|
E|-------------------------------------------------------------------------|

you get the idea

| /  slide up
| \  slide down
| h  hammer-on
| p  pull-off
| ~  vibrato
| +  harmonic
| x  Mute note
============================================================================
Comments