Deus - Disappointed In The Sun Chords & Tabs

 

Disappointed In The Sun Chords & Tabs

Deus Chords & Tabs

Version: 1 Type: Bass Tab 0 ratings
1 star 2 stars 3 stars 4 stars 5 stars
comments

Disappointed In The Sun Bass Tab

Disappointed In The Sun

-----
Bass
-----

tab by Avi

Verse - 
   _________
  / repeat  \
G|-----|-----|---------|-------|-------|-----|-------|---------|
D|-----|-----|---------|-------|-------|-----|-------|---------|
A|-0-3-|-3-0-|-0-3-3/7-|-------|-3-3/7-|-----|-3-3/7-|---------|
E|-----|-----|---------|-1-1/4-|-------|-1-4-|-------|-1-1-1/4-|
                   _________
                  / repeat  \
G|---|-----|-----|-----|-----|
D|---|-----|-----|-----|-----|
A|---|-----|-----|-----|-----|
E|-3-|-3-1-|-1-3-|-3-1-|-1-3-|


Chorus -
   _________
  /  twice  \
G|-----|-----|-----|-----|-----|------|
D|-----|-----|-----|-----|-----|------|
A|-0-3-|-3-0-|-0-5-|-5-7-|-7-8-|-8-10-|
E|-----|-----|-----|-----|-----|------|
[ Tab from: http://www.guitartabs.cc/tabs/d/deus/disappointed_in_the_sun_btab.html ]
Bridge (before the last chorus) - 
                             _____________
                            /    repeat   \ 
G|---|-----|---------|-----|---------|-----|------|------|
D|---|-----|---5/7---|-----|---5/7---|-----|------|------|
A|-3-|-3-0-|-0-----3-|-3-0-|-0-----3-|-3-0-|-3...-|-0...-|
E|---|-----|---------|-----|---------|-----|------|------|

then "maybe taking it another..." -
                         _________
                        / repeat  \
G|---|-----|-----|-----|-----|-----|
D|---|-----|-----|-----|-----|-----|
A|---|-----|-----|-----|-----|-----|
E|-3-|-3-1-|-1-3-|-3-1-|-1-3-|-3-1-|

then just before they sing - 
G|----------------------|
D|----------------------|
A|-10-10-10-10-10-10...-|
E|----------------------|

then play the chorus again...

man, oh man what a beauty ! :-))
Comments