Detour - Passion Chords & Tabs

 

Passion Chords & Tabs

Detour Chords & Tabs

Version: 1 Type: Tab 0 ratings
1 star 2 stars 3 stars 4 stars 5 stars
comments

Passion Tab

Song:Passion
Band:Detour
Tabbed by:Adam Aldridge

Intro
E----------------------------------------------------------|
A----------------------------------------------------------|
D--5-------------------------------------------------------|
G--5-----5/-----8\----3------------------------------------|
B--3-----5/---- 8\----3------------------------------------|
E--------3/-----6\----1------------------------------------|
   x3	 x2     x2    x2

Verse
E----------------------------------------------------------|
A----------------------------------------------------------
D-X-X-7-X-X-7-X-X-7-X-X-7----------------------------------|
G-X-X-7-X-X-7-X-X-7-X-X-7--X-X-7-X-X-7-X-X-7-X-X-7---------|
B-X-X-5-X-X-5-X-X-5-X-X-5--X-X-7-X-X-7-X-X-7-X-X-7---------|
E--------------------------X-X-5-X-X-5-X-X-5-X-X-5---------|
				  
E----------------------------------------------------------|
A----------------------------------------------------------|
D----------------------------------------------------------|
G--X-X-5-X-X-5-X-X-5-X-X-5---------------------------------|X2
B--X-X-5-X-X-5-X-X-5-X-X-5---------------------------------|
E--X-X-3-X-X-3-X-X-3-X-X-3---------------------------------|
X
Chorus
E----------------------------------------------------------|
A----------------------------------------------------------|
D-555------------------------------------------------------|
G-555--55/--88\--33----------------------------------------|X4
B-333--55/--88\--33----------------------------------------|
E------33/--66\--11----------------------------------------|
[ Tab from: http://www.guitartabs.cc/tabs/d/detour/passion_tab.html ]
Verse 2
E----------------------------------------------------------|
A----------------------------------------------------------
D-X-X-7-X-X-7-X-X-7-X-X-7----------------------------------|
G-X-X-7-X-X-7-X-X-7-X-X-7--X-X-7-X-X-7-X-X-7-X-X-7---------|
B-X-X-5-X-X-5-X-X-5-X-X-5--X-X-7-X-X-7-X-X-7-X-X-7---------|
E--------------------------X-X-5-X-X-5-X-X-5-X-X-5---------|
				  
E----------------------------------------------------------|
A----------------------------------------------------------|
D----------------------------------------------------------|
G--X-X-5-X-X-5-X-X-5-X-X-5---------------------------------|X2
B--X-X-5-X-X-5-X-X-5-X-X-5---------------------------------|
E--X-X-3-X-X-3-X-X-3-X-X-3---------------------------------|

Bridge
E------------6-5-0----------------------------6-5-0--------|
A--0-5-7-5-7-------0-4-0-5-0-7-5-4--0-5-7-5-7--------------|
D----------------------------------------------------------|
G----------------------------------------------------------|
B----------------------------------------------------------|
E----------------------------------------------------------|

		     ~
E----------------------------------------------------------|
A--0-7-8-9-8-7-0-----5-------------------------------------|
D----------------------------------------------------------|
G----------------------------------------------------------|
B----------------------------------------------------------|x2
E----------------------------------------------------------|

Chorus



ORDER:
Intro  x1
Verse  x2
Chorus x4
Verse  x2
Chorus x4
Bridge x1

NOTES:

/ -slide up
\ -slide down
~ -vibrato
X -plam muted
Comments