Desultory - The Bitter Man Chords & Tabs

 

The Bitter Man Chords & Tabs

Desultory Chords & Tabs

Version: 1 Type: Tab 0 ratings
1 star 2 stars 3 stars 4 stars 5 stars
comments

The Bitter Man Tab

The Bitter man By Desultory
>From the album : Swallow the snake
Transcription by : Ugo Er Mejo
Transcriber's E-Mail Address : 
    ugo_er_mejo@geocities.com

Note : I am looking for tabs of
cradle of filth.If you have some
(which are not on disclaimer's or
on the OLGA) please send them to me
 
Tune the guitar down to D
  
                   X 3              
E-|----------------------|-----------------------------
B-|----------------------|-----------------------------
G-|----------------------|-----------------------------
B-|--2------2----5-------|-2-----5-----7--7------------
A-|--2------2----5-------|-2-----5-----7--7------------
E-|--0--0--0--0--3-------|-0--0--3--0--5--5------------
         PM  PM     PM   PM   PM
   ( Fade in first time                         )
   ( >>>>>>>>>>>>>>>>>>>>>>>>>)
[ Tab from: http://www.guitartabs.cc/tabs/d/desultory/the_bitter_man_tab.html ]
*  I'm not very sure of the second repetition
*  of the riff,infact it's a little different by the
*  first G,but i did'nt find the right chord
*  Repeat this six times,four under the vocals
E-|-------------------------------------------------------
B-|-------------------------------------------------------
G-|-------------------------------------------------------
B-|--5-----/10--9--7--5--3--------------------------------
A-|--5----/10---9--7--5--3--------------------------------
E-|--3--0-/8----7--5--3--1--------------------------------
         PM 
*  This is the riff under the chorus
*  It's correct,but it could be different if
*  you tune the song on C
* There's a pull off somewhere,find it yourself


E-|------------------------------------------------------------
B-|------------------------------------------------------------
G-|------------------------------------------------------------
B-|------------------------------------------------------------
A-|--P------------P-----------P--------3-----------------------
E-|-0--3--3--3--0--3--3--3--0--3--3--3-------------------------
 
E-|------------------------------------------------------------
B-|------------------------------------------------------------
G-|------------------------------------------------------------
B-|------------------------------------------------------------
A-|----P-----------P-----------P-------3--1--------------------
E-|--0--3--3--3--0--3--3--3--0--3--3--3------------------------
 
* This is the bass piece.Nothing to say on
* it

E-|------------------------------------------------------------
B-|------------------------------------------------------------
G-|------------------------------------------------------------
B-|------------------------------------------------------------
A-|------------------------------------------------------------
E-|------------------------------------------------------------
 
*
*
*
Comments