Desultory - Among Mortals Chords & Tabs

 

Among Mortals Chords & Tabs

Desultory Chords & Tabs

Version: 1 Type: Tab 0 ratings
1 star 2 stars 3 stars 4 stars 5 stars
comments

Among Mortals Tab

   
Among Mortals - Desultory
>From Bitterness
Trascription by : Ugo Gasparri
E-Mail address :  ugo_er_mejo@geocities.com
 
This Tablature was created with TabExpert V.1.0.00 by Ugo Gasparri

Heres another tab from desultory's bitterness.
The rythmic is quite simple but be aware of
the timing.
Second guitar sometimes doubles gtr I with the
same notes I oct. higher,find yourselves where.

Any questions,comments or suggestions : 
ugo_er_mejo@geocities.com

Intro : A lot of studio noises.
Just play A.H with guitar and follow the notes
with the bass.

NOTE : The whole song should be tuned in Db
Here it's transcribed in E but you can easily 
play on a Db tuned guitar by playing all one half-step
down.

RIFF A
   1.
E-|------------------------|
B-|------------------------|
G-|-----------------/11\10-|
D-|--8----10/11-\4--/11\10-|
A-|--8----10/11-\4--/9-\8--|
E-|--6----8-/9--\2---------|
   2.                            GTR I + II
E-|------------------------|
B-|------------------------|
G-|------------------------|
D-|--8----10/11-\4---9\8-9-|
A-|--8----10/11-\4---9\8-9-|
E-|--6----8-/9--\2---7\6-7-|
 
* Well this is simple.It goes on during
* almost the whole song,with different timing.
[ Tab from: http://www.guitartabs.cc/tabs/d/desultory/among_mortals_tab.html ]
   RIFF B
E-|---------------------------------------------------------------------
B-|---------------------------------------------------------------------
G-|---------------------------------------------------------------------
D-|-9-/10------------------2--------------------------------------------
A-|-9-/10------------------2--------------------------------------------
E-|-7-/8---------2h3p2-0-0-0--------------------------------------------
 
* The bridge.Rythm changes sometimes
 
E-|--------------------------------11------/12-11-----11----------------
B-|--------12-11----11-12-14-12-11-----------------14--------11-12-12-12
G-|-----15-------13---------------------------------------13------------
D-|--/------------------------------------------------------------------
A-|---------------------------------------------------------------------
E-|---------------------------------------------------------------------
 
E-|---------------------------------------------------------------------
B-|-11------------------------------------------------5-7-5---7-5-------
G-|----------9-8--8-9-11-8-9-11/13--8/9\8------8-9-8--------------8-----
D-|---------------------------------------------------------------------
A-|---------------------------------------------------------------------
E-|---------------------------------------------------------------------


E-|---------------------------------------------------------------------
B-|--9-7-5---5-7-/9---9-7---------------------------9-/12-11------------
G-|--------8--------------9-8-9-8-6---6----------/8---------------------
D-|---------------------------------9---9-8-6-8-------------------------
A-|---------------------------------------------------------------------
E-|---------------------------------------------------------------------

E-|---------------------------------------------------------------------
B-|--11-12-11----11--11-12-11----11-------------------------------------
G-|-----------13--------------13----------------------------------------
D-|----------------------------------13-/16-15--------------------------
A-|---------------------------------------------------------------------
E-|---------------------------------------------------------------------


Ok,the last riff is missing because it's tuned in Db and I'm too
lazy to tune down.Anyway it's fucking easy.
I hope this is good enough,but there are many mistakes I think.
Just take it as a starting point and correct by your own

Any comments,suggestions or wathever : 
ugo_er_mejo@geocities.com
Comments