Destruction - Total Desaster 2000 Chords & Tabs

 

Total Desaster 2000 Chords & Tabs

Destruction Chords & Tabs

Version: 1 Type: Tab 0 ratings
1 star 2 stars 3 stars 4 stars 5 stars
comments

Total Desaster 2000 Tab

#----------------------------------PLEASE NOTE--------------------------------#
#This file is the author's own work and represents their interpretation of the#
#song. You may only use this file for private study, scholarship, or research.#
#-----------------------------------------------------------------------------#
#-- File created with Instab - http://www.pconline.com/~smcarey/instab.html --#
#-----------------------------------------------------------------------------#

Author/Artist: Destruction
Title: Total Desaster 2000
Album: All Hell Breaks Loose - 2000
Transcribed by: Son Of Northern Darkness (Felipe Cepollini)
Email: ben_wrangle@hotmail.com
Date: 22/July/2003

. palm mute
\ slide
* Don't strum this cord!

  RIFF 1A                          RIFF 1B                          RIFF 1C
e|--------------------------------|--------------------------------|---|
B|--------------------------------|--------------------------------|---|
G|------------------------------*-|--------------------------------|---|
D|-9-----5-5-------9---9---7\10/9-|-9-----5-5-------9---9---7-9-10-|-9-|
A|-7-----3-3-------7---7---5\8-/7-|-7-----3-3-------7---7---5-7-8--|-7-|
E|---0-0-----0-0-0---0---0--------|---0-0-----0-0-0---0---0--------|---|
     . .     . . .   .   .            . .     . . .   .   .

  FILL 1A                          FILL 1B
e|--------------------------------|------------------------------|
B|--------------------------------|------------------------------|
G|--------------------------------|------------------------------|
D|-5--4-----5--7--9-------9-------|-5--4-----5--7----------------|
A|-3--2--5--3--5--7-------7-------|-3--2--5--3--5--2--3--2-------|
E|-------3----------0-0-0---0-0-0-|-------3-----------------3--2-|
                    . . .   . . .
[ Tab from: http://www.guitartabs.cc/tabs/d/destruction/total_desaster_2000_tab.html ]
  CHORUS
e|------------------------------------------------------------------|
B|------------------------------------------------------------------|
G|------------------------------------------------------------------|
D|-9-9-9-9-9-10-10-9-9-9-9-12-11-10-11-9-9-9-9-9-10-10-7--------9-9-|
A|-7-7-7-7-7-8--8--7-7-7-7-10-9--8--9--7-7-7-7-7-8--8--5-555555-7-7-|
E|-------------------------------------------------------......-----|


  INTERLUDE
e|--------------------------------------------------------------------------
B|--------------------------------------------------------------------------
G|--------------------------------------------------------------------------
D|-4----------5-5--4--------------4----------5-5--4-------------------------
A|-2-222-222--3-3--2-2222---------2-222-222--3-3--2-2222--------------------
E|---...-...---------....-2-3-5-3---...-...---------....-2-3-5-3------------

----------------------------|
----------------------------|
----------6-7-----------6-7-|
-5-5-5-5--4-5--5-5-5-5--4-5-|
-3-3-3-3-------3-3-3-3------|
----------------------------|


  END 1st TIME                     END 2nd TIME
e|--------------------------------|-----------------------------|
B|--------------------------------|-----------------------------|
G|--------------------------------|-----------------------------|
D|-4----------5-5--4--------------|-4----------5-5--4---------4-|
A|-2-222-222--3-3--2-2222---------|-2-222-222--3-3--2-222-222-2-|
E|---...-...---------....-2-3-5-3-|---...-...---------...-...---|


  SOLO RIFF
e|------------------------------------------------------------------|
B|------------------------------------------------------------------|
G|------------------------------------------------------------------|
D|-9-999-999-999-995-555-555-555-557-777-777-777-779-999-99---------|
A|-7-777-777-777-773-333-333-333-335-555-555-555-557-777-77-2-0-----|
E|--------------------------------------------------------------3-2-|


SONGSTRUCTURE:
Riff 1A: 3x
Riff 1B: 1x
Riff 1A: 3x
Riff 1B: 1x
Fill 1A: 3x
Fill 1B: 1x
Riff 1A: 3x
Riff 1B: 1x
Chorus: 3x
Riff 1A: 3x
Riff 1B: 1x
Chorus: 3x
Interlude: 2x - 1st time with End 1, 2nd time with End 2
Solo riff: 4x
Riff 1A: 3x
Riff 1B: 1x
Riff 1A: 3x
Riff 1B: 1x
Chorus: 2x
Riff 1A: 3x
Riff 1B: 1x
Riff 1C: 1x
E5 til the end


I think it's well explained, and you don't have how to get lost on this
kicking ass song.
Comments, sugestions, corrections, eulogies or anything you want tell about
the tab, send a mail.

THRASH 'TIL DEATH!!!!
Comments