Destruction - Nailed To The Cross Chords & Tabs

 

Nailed To The Cross Chords & Tabs

Destruction Chords & Tabs

Version: 2 Type: Tab 0 ratings
1 star 2 stars 3 stars 4 stars 5 stars
comments

Nailed To The Cross Tab

Destruction - Nailed to the cross
Album: The Antichrist

E|-----------------------------|
B|-----------------------------|
G|-----------------------------|
D|-1-2-2-2-1-1-------3---------|
A|-1-2-2-2-1-1-1-4-1---1-1-----|
D|-1-2-2-2-1-1-----------------|

brigde
E|---------------------------------|---------------------------------|
B|---------------------------------|---------------------------------|
G|---------------------------------|---------------------------------|
D|-0-3-0-0-2-2-2-3-0-3-0-0-2-2-2-3-|-3-6-3-3-5-5-5-6-3-6-3-3-5-5-5-6-|
A|---------------------------------|---------------------------------|
D|---------------------------------|---------------------------------|
Fear the unknown spheres...

E|-----------------------------|
B|-----------------------------|
G|-----------------------------|
D|-4-3-4-4-3-2-3-3-2-1-2-2-1---|
A|-----------------------------|
D|-----------------------------|
Your book of god.....

E|-----------------------------|
B|-----------------------------|
G|-----------------------------|
D|-1-2-2-2-1-1-------3---------|
A|-1-2-2-2-1-1-1-4-1---1-1-----|
D|-1-2-2-2-1-1-----------------|
 
brigde
E|---------------------------------|---------------------------------|
B|---------------------------------|---------------------------------|
G|---------------------------------|---------------------------------|
D|-0-3-0-0-2-2-2-3-0-3-0-0-2-2-2-3-|-3-6-3-3-5-5-5-6-3-6-3-3-5-5-5-6-|
A|---------------------------------|---------------------------------|
D|---------------------------------|---------------------------------|
[ Tab from: http://www.guitartabs.cc/tabs/d/destruction/nailed_to_the_cross_tab_ver_2.html ]
E|-----------------------------|
B|-----------------------------|
G|-----------------------------|
D|-4-3-4-4-3-2-3-3-2-1-2-2-1---|
A|-----------------------------|
D|-----------------------------|
Your book of god.....

E|-----------------------------|
B|-----------------------------|
G|-----------------------------|
D|-6-9-11-9--------------------|
A|-6-9-11-9--------------------|
D|-6-9-11-9--------------------|
The sign of a cross...

E|-----------------------------|
B|-----------------------------|
G|-----------------------------|
D|-6-6-7-6---------------------|
A|-6-6-7-6---------------------|
D|-6-6-7-6-9-8-7---------------|

brigde
E|---------------------------------|---------------------------------|
B|---------------------------------|---------------------------------|
G|---------------------------------|---------------------------------|
D|-0-3-0-0-2-2-2-3-0-3-0-0-2-2-2-3-|-3-6-3-3-5-5-5-6-3-6-3-3-5-5-5-6-|
A|---------------------------------|---------------------------------|
D|---------------------------------|---------------------------------|

E|-----------------------------|
B|-----------------------------|
G|-----------------------------|
D|-4-3-4-4-3-2-3-3-2-1-2-2-1---|
A|-----------------------------|
D|-----------------------------|
Your book of god.....

E|-----------------------------|
B|-----------------------------|
G|-----------------------------|
D|-1-2-2-2---------------------|
A|-1-2-2-2---------------------|
D|-1-2-2-2---------------------|

whel this is it, if you have any questions or hear mistakes, just mail me at sepultura@dreamtheater.zzn.com
arjan hoogendoorn
(daronmalakian)
Comments