Destinys Child - Hey Ladies Chords & Tabs

 

Hey Ladies Chords & Tabs

Destinys Child Chords & Tabs

Version: 1 Type: Bass Tab 0 ratings
1 star 2 stars 3 stars 4 stars 5 stars
comments

Hey Ladies Bass Tab

This is my very first tab, so if I'm wrong....please be gentle.

You play this part through most of the song.
G|-------------------------------------------------|
D|-------------------------------------------------|
A|-5-5-5-5-5-3h5-3h5-7-5---------------------8-7---|
E|------------------------5-5-5-5-5-3h5-3h5--------|
[ Tab from: http://www.guitartabs.cc/tabs/d/destinys_child/hey_ladies_btab.html ]
This is for the bridge.
G|------------------------------------------------------|
D|------------------------------------------------------|
A|-5-5-5-5-5-3h5----------------------------------------|
E|---------------5-5-5-5-5-3h5--------------------------|


Easy.

Feel free to tell me how much you love me or how much I suck.

Desiree@shroomery.com
Comments