Destinys Child - Bills Bills Bills Chords & Tabs

 

Bills Bills Bills Chords & Tabs

Destinys Child Chords & Tabs

Version: 1 Type: Bass Tab 0 ratings
1 star 2 stars 3 stars 4 stars 5 stars
comments

Bills Bills Bills Bass Tab

Artist: destiny's child
Song: Bills, bills, bills
Tabbed by: Dan Rowden

Verse:
G|-----------|---------|---------|-----------|
D|-----------|---------|---------|-----------|
A|-2-------2-|---------|-2-----2-|-----------|
E|-----------|-2-------|---------|-2-2-2-2-2-|
   1 2 3 4 &   1 2 3 4   1 2 3 4   1 2 3 4 &

G|-----------|---------|-----------|---------|
D|-----------|---------|-----------|---------|
A|-----------|---------|-----------|---------|
E|-0-------0-|-2-------|-0-------0-|-2-------|
   1 2 3 4 &   1 2 3 4   1 2 3 4 &   1 2 3 4
[ Tab from: http://www.guitartabs.cc/tabs/d/destinys_child/bills_bills_bills_btab.html ]
Chorus:
G|---------|-------------|---------|-------------|
D|---------|-------------|---------|-------------|
A|-2-------|-1-1-1-1-1---|-0-------|-------------|
E|---------|-------------|---------|-4-4-4-4-4---|
   1 2 3 4   1 & 2 & 3 4   1 2 3 4   1 & 2 & 3 4

G|---------|---------|---------|-----------|
D|-5-------|-5-----5-|-4-------|-4-----0---|
A|---5---5-|---------|---4---4-|---------4-|
E|-----3---|---------|-----2---|-----------|
   1 2 3 4   1 2 3 4   1 2 3 4   1 2 3 4 &


Any comments or suggestions? danrowden@aol.com
Visit bass tabs uk at http://listen.to/basstabsuk

Comments