Desperation - I Am Free Chords & Tabs

 

I Am Free Chords & Tabs

Desperation Chords & Tabs

Version: 1 Type: Tab 0 ratings
1 star 2 stars 3 stars 4 stars 5 stars
comments

I Am Free Tab

   
hey noone tabbed this anywhere this is what my band plays please rate
God bless
INTRO + I AM FREE PART
e-5-5-5-3-3-3-2-2-3-2-3-|
B-----------------------|
G-----------------------|
D-----------------------|X2
A-----------------------|
E-----------------------|

e-3-3-3-2-2-2-0-0-0---------|
B-------------------3-3-0-3-|
G---------------------------|
D---------------------------|X2
A---------------------------|
E---------------------------|

this isnt like cd but works anyway
e-------2-0---------------2-0-----------|
B-5-3-5---------5-3-5-3-5-------------3-|
G-----------------------------------2---|
D---------------------------------4-----|
A---------------------------------------|
E---------------------------------------|
[ Tab from: http://www.guitartabs.cc/tabs/d/desperation/i_am_free_tab.html ]
during "through you" part we do this play till chord switches              e--|
B-----------------------------------------------------------------------------|
G-----------------------------------------------------------------------------|
D-----------------------------------------------------------------------------|
A-555555------222222000000020-0-----------------------------------------------|
E-------333333---------------3------------------------------------------------|

guitar 2
INTRO:
D//// G//// Bm7// Asus// D////

VERSE:
D
Through you the blind will see, through you the mute will sing
G
Through you the dead will raise, through you all hearts will praise
Bm7                             Asus                               D
Through you the darkness flees, through you my heart screams "i am free"

CHORUS:
     D
I am free to run (I am free to run)
     G
I am free to dance (I am free to dance)
      Bm7                        Asus
I am free to live for you (I am free to live for you)
      D
I am free  (I am free)
(repeat chorus)

REPEAT VERSE AND CHORUS

D G Bm7 Asus D

REPEAT CHORUS  2X's

D G Bm7 Asus D
Comments