Desmond Dekker - Jamaica Ska Chords & Tabs

 

Jamaica Ska Chords & Tabs

Desmond Dekker Chords & Tabs

Version: 1 Type: Bass Tab 0 ratings
1 star 2 stars 3 stars 4 stars 5 stars
comments

Jamaica Ska Bass Tab

   
JAMAICA SKA
Artist: Desmond Dekker (don't know the album)

E major


Riff 1:
|-----------------|----------------|
|-----------------|----------------|  repeat
|-----------------|----------6--4--|  several times
|--0--0----0-4-5--|--7-----7-------|

[ Tab from: http://www.guitartabs.cc/tabs/d/desmond_dekker/jamaica_ska_btab.html ]
Riff 2:
|-----------------|----------------|-------------|--------------|
|-----------------|----------------|-------------|--------------|  back to
|--7--7-5--5-5----|--4--4-3--3-3---|-------------|--7--4--------|  Riff 1
|-----------------|----------------|--7--7-7--7--|--------7--4--|



Note: Yeah, that's actually all. This is my first piece of tablature so I
      figured I'd better not pick Jaco Pastorius to start with. ;-) I
      didn't include lyrics or indicate timing because it should be no
      problem at all to play this when having listened to the recording.
      Hope someone enjoys playing the song; I am always happy to receive
      email so drop me a line if you like.


Submitted by Lilith [silberfinger@gmx.net].
Comments