Desert Sessions - Subcutaneous Phat Chords & Tabs

 

Subcutaneous Phat Chords & Tabs

Desert Sessions Chords & Tabs

Version: 1 Type: Bass Tab

Subcutaneous Phat Bass Tab

Song:    Subcutaneous Phat
Artist:  Desert Sessions
Album:   Desert Sessions Volume 9 & 10
Tuning:  Standard - EADG


Pretty heavy bass line, kinda tricky to get the hammer ons on the bass and I canít get
the distortion quite right but this tabs seems spot on.  Any suggestions/corrections
email crisp_packet@hotmail.com.  Thanks, enjoy.


Main Riff:


G||------------------------------------------------|------------------------------------------------||
D||--------------------5-h7------------------------|-----5-h7--------------------------5-----5--~--~||
A||--5-h7--------------------------------5-h7------|-----------------------------5-h7-----7---------||
E||--------0-----0-----------0-----0-----------0---|--0--------0-----0-----5-h7---------------------||


Bridge:


G||------------------------------------------------|------------------------------------------------||
D||------------------------------------------------|------------------------------------------------||
A||--7-----------7-----------7-----------7---------|--5-----------5-----------5-----------5---------||
E||--------5--5--------5--5--------5--5--------5--5|--------3--3--------3--3--------3--3--------3--3||

[ Tab from: http://www.guitartabs.cc/tabs/d/desert_sessions/subcutaneous_phat_btab.html ]
G||------------------------------------------------|------------------------------------------------||
D||------------------------------------------------|------------------------------------------------||
A||--------4--4--------4--4--------4--4--------4--4|--------3--3--------3--3--------3--3--------3--3||
E||--2-----------2-----------2-----------2---------|--1-----------1-----------1-----------1---------||


G||------------------------------------------------|------------------------------------------------||
D||------------------------------------------------|------------------------------------------------||
A||--7-----------7-----------7-----------7---------|--5-----------5-----------5-----------5---------||
E||--------5--5--------5--5--------5--5--------5--5|--------3--3--------3--3--------3--3--------3--3||


G||------------------------------------------------|------------------------------------------------||
D||------------------------------------------------|------------------------------------------------||
A||--------4--4--------4--4--------4--4--------4--4|-----3-----3-----3-----3-----3-----3-----3-----3||
E||--2-----------2-----------2-----------2---------|--1-----1-----1-----1-----1-----1-----1-----1---||


Fill:


G||-10-10-----9--9-----8--8-----7--7-----6--6--5--5|------------------------------------------------||
D||------------------------------------------------|-10-10-----9--9-----8--8-----7--7-----6--6--5--5||
A||------------------------------------------------|------------------------------------------------||
E||------------------------------------------------|------------------------------------------------||