Desert Sessions - In My Head Or Something Chords & Tabs

 

In My Head Or Something Chords & Tabs

Desert Sessions Chords & Tabs

Version: 1 Type: Tab 0 ratings
1 star 2 stars 3 stars 4 stars 5 stars
comments

In My Head Or Something Tab

Desert Sessions
In My Head...or Something
Volumes 9 and 10
Tuning:STANDARD

INTRO
|---------------------------------------------------------------------------|
|---------------------------------------------------------------------------|
|---------------------------------------------------------------------------|
|---------------------------------------------------------------------------|
|---7-7-7-7-7-7-7-7-7-7-7-7-7-7-7-7-10-10-10-10-10-10-10-10-10-10-10-10-10--|
|---------------------------------------------------------------------------|

|---------------------------------------------------------------------------|
|---------------------------------------------------------------------------|
|---------------------------------------------------------------------------|
|---------------------------------------------------------------------------|
|---5-5-5-5-5-5-5-5-5-5-5-5-5-5-5-5-6-6-6-6-6-6-6-6-6-6-6-6-6-6-6-6-6-6-6-6-|
|---------------------------------------------------------------------------|
[ Tab from: http://www.guitartabs.cc/tabs/d/desert_sessions/in_my_head_or_something_tab.html ]
VERSE
         It's the cruelest joke  to play
|---------------------------------------------------------------------------|
|---------------------------------------------------------------------------|
|-9--9-9-9-9-9---5--5-5-5-5-5---6--6-6-6-6-6--------------------------------|
|-9--9-9-9-9-9---5--5-5-5-5-5---6--6-6-6-6-6---7--7-7--5-5--7-7-------------|
|-7--7-7-7-7-7---3--3-3-3-3-3---4--4-4-4-4-4---7--7-7--5-5--7-7-------------|
|----------------------------------------------5--5-5--3-3--5-5-------------|
           I'm so high I run in  place
|---------------------------------------------------------------------------|
|---------------------------------------------------------------------------|
|-9--9-9-9-9-9---5--5-5-5-5-5---6--6-6-6-6-6--------------------------------|
|-9--9-9-9-9-9---5--5-5-5-5-5---6--6-6-6-6-6---7--7-7--5-5--7-7-------------|
|-7--7-7-7-7-7---3--3-3-3-3-3---4--4-4-4-4-4---7--7-7--5-5--7-7-------------|
|----------------------------------------------5--5-5--3-3--5-5-------------|
          Only a line we separate              Sooooooo
|---------------------------------------------------------------------------|
|---------------------------------------------------------------------------|
|-9--9-9-9-9-9---5--5-5-5-5-5---6--6-6-6-6-6--------------------------------|
|-9--9-9-9-9-9---5--5-5-5-5-5---6--6-6-6-6-6---7--7-7--5-5--7-7-------------|
|-7--7-7-7-7-7---3--3-3-3-3-3---4--4-4-4-4-4---7--7-7--5-5--7-7-------------|
|----------------------------------------------5--5-5--3-3--5-5-------------|

CHORUS
  I keep on playin our favorite song   I turn it up while you're gone
|---------------------------------------------------------------------------|
|---------------------------------------------------------------------------|
|--9-9-9-9-9-9-9-9-9-9-9-9-9-9-9-9-9----------------------------------------|
|--9-9-9-9-9-9-9-9-9-9-9-9-9-9-9-9-9--5-5-5-5-5-5-5-5-5-5-5-5-5-5-5-5-5-5---|
|--7-7-7-7-7-7-7-7-7-7-7-7-7-7-7-7-7--5-5-5-5-5-5-5-5-5-5-5-5-5-5-5-5-5-5---|
|-------------------------------------3-3-3-3-3-3-3-3-3-3-3-3-3-3-3-3-3-3---|

 It's all I've got when you're in my  head and you're in my head so i need it
|---------------------------------------------------------------------------|
|---------------------------------------------------------------------------|
|--7-7-7-7-7-7-7-7-7-7-7-7-7-7-7-7-7-8-8-8-8-8-8-8-8-8-8-8-8-8-8-8-8-8-8-8-8|
|--7-7-7-7-7-7-7-7-7-7-7-7-7-7-7-7-7-8-8-8-8-8-8-8-8-8-8-8-8-8-8-8-8-8-8-8-8|
|--5-5-5-5-5-5-5-5-5-5-5-5-5-5-5-5-5-6-6-6-6-6-6-6-6-6-6-6-6-6-6-6-6-6-6-6-6|
|---------------------------------------------------------------------------|

VERSE 2
You're the only thing I've got
I can't seem to get enough
We collide for one embrace
so..............

BREAKDOWN

|---------------------------------------------------------------------------|
|---------------------------------------------------------------------------|
|---------------------------------------------------------------------------|
|---------------------------------------------------------------------------|
|-6--6-6-6-6-6--7-7--9-9-10--10-10-10-10-10-10------------------------------|
|---------------------------------------------------------------------------|

|---------------------------------------------------------------------------|
|---------------------------------------------------------------------------|
|---------------------------------------------------------------------------|
|---------------------------------------------------------------------------|
|-6--6-6-6-6-6--7-7--9-9-10--10-10-12-14-12---------------------------------|
|---------------------------------------------------------------------------|
Comments