Descendents - When I Get Old Chords & Tabs

 

When I Get Old Chords & Tabs

Descendents Chords & Tabs

Version: 1 Type: Tab 0 ratings
1 star 2 stars 3 stars 4 stars 5 stars
comments

When I Get Old Tab

Descendents
When I Get Old
Tabbed by Pennywise 666

Intro 2X
E|--------0-0-0--3-3-2--0-0-0-|
B|--8-8---3-3-3--3-3-2--3-3-3-|
G|--7-7---2-2-2--0-0-0--2-2-2-|
D|--9-9---0-0-0--0-0-0--0-0-0-|
A|--7-7---0-0-0--2-2-2--0-0-0-|
E|--------2-2-2--3-3-3--2-2-2-|

E|---------3-----------------------------------|
B|-8-8-----3-----------------------------------|
G|-7-7-----0-----------------------------------|
D|-9-9-----0---5-5-5-5-5-5-5-5-5-5-5-5-5-5-5-5-|
A|-7-7-----3---3-3-3-3-3-3-3-3-3-3-3-3-3-3-3-3-|
E|---------2-----------------------------------|

Verse
E|------------------------------------------------------------------------|
B|------------------------------------------------------------------------|
G|----------7-7-7-7-7-----------------------------------------------------|
D|-5-5-5-5--7-7-7-7-7-----------------------------------------------------|
A|-5-5-5-5--5-5-5-5-5-10-10-10-10-10-10-10-10-10-10-10-10-10-10-10-10-----|
E|-3-3-3-3-------------8--8--8--8--8--8--8--8--8--8--8--8--8--8--8--8-----|

E|------------------------------------------------------------------------|
B|------------------------------------------------------------------------|
G|-4-4-4-4--9-9-9-9-9-----------------------------------------------------|
D|-4-4-4-4--9-9-9-9-9--8-8-8-8-8-8-8-8-8-8-8-8-8-8-8-8--------------------|
A|-2-2-2-2--7-7-7-7-7--8-8-8-8-8-8-8-8-8-8-8-8-8-8-8-8--------------------|
E|---------------------6-6-6-6-6-6-6-6-6-6-6-6-6-6-6-6--------------------|
[ Tab from: http://www.guitartabs.cc/tabs/d/descendents/when_i_get_old_tab.html ]
E|---------------------------------------------------|
B|---------------------------------------------------|
G|---------------------------------------------------|
D|---------------------------------------------------|
A|-13-13-13-13-13-13-13-13-13-13-13-13-13-13-13------|
E|-11-11-11-11-11-11-11-11-11-11-11-11-11-11-11------|

Bridge
E|----------------------------------------------|
B|----------------------------------------------|
G|-6----------8----------4----------2-----------|
D|-7----------9----------5----------3-----------|
A|-7----------9----------5----------3-----------|
E|-5----------7----------3----------1-----------|

After the slide....
E|------------------------------------------------------------------------|
B|------------------------------------------------------------------------|
G|------------------------------------------------------------------------|
D|------------------------------------------------------------------------|
A|--7-7-7-7-7-7-7-7-7-7-7-7-7-7-7-7--9-9-9-9-9-9-9-9-9-9-9-9-9-9-9-9------|
E|--5-5-5-5-5-5-5-5-5-5-5-5-5-5-5-5--7-7-7-7-7-7-7-7-7-7-7-7-7-7-7-7------|

E|------------------------------------7---------------------------|
B|------------------------------------8---------------------------|
G|-----------------4----4-5---4/9-----9---------------------------|
D|--------5---------------------------9---------------------------|
A|-3----------------------------------7---------------------------|
E|----------------------------------------------------------------|
Comments