Descendents - Theme Chords & Tabs

 

Theme Chords & Tabs

Descendents Chords & Tabs

Version: 2 Type: Bass Tab 0 ratings
1 star 2 stars 3 stars 4 stars 5 stars
comments

Theme Bass Tab

From:	haplo_4@hotmail.com
Sent:	14 July 1998 05:54 PM

Subject:	SUBMITTED: d/descendents/theme.btab
Submitted by: Shaun Drake            Haplo_4@hotmail.com

Tabbed by: Don Spencer

Descendents   Theme
As appears on: "I don't want to grow up",and "Somery"

----------------------------------------------------------------------


G: ------5------------------ ------5----16-15-14-13---------
D: --5h7---7=-7-6-4--------- --5h7---7/---------------------
A: 6---------------7-0-3-4-5 -6---------------------0-3-4-5-
E: ------------------------- -------------------------------


----------------------------------------------------------------------


G: -----5-----------------------------------------------------
D: -5h7---7=-77678-9999-9999-9-7-6-----------6-7-6------------
A: 6-------------------------------9-7777-7-9-----9-7-6-------
E: -----------------------------------------------------9-7777


----------------------------------------------------------------------


G: -------------------------             ---------------------------
D: ---------6-7-6-----------             ---------------------------
A: ----6-7-9-----9-7-6------:(repeat x2) ---------------------7-7777
E: 7-9----------------9-7777             7-7777-7-7777-9-9999-------

[ Tab from: http://www.guitartabs.cc/tabs/d/descendents/theme_btab_ver_2.html ]
----------------------------------------------------------------------
(on third time around, skip to outro)
----------------------------------------------------------------------


G: ------------------             -------------------
D: ------------------             ----------7-77-77-7
A: ------------------             5-55-55-5----------
E: 3-33-33-35-55-55-5:(repeat x3) -------------------


----------------------------------------------------------------------


G: 6-4----------------------------------4---------------
D: ----7-6-4-44-44-4-6-7-6-------5-55-5--5-4-0---------- (first time )
A: -----------------------2-22-22--------------3-7-77-77 (7777-7777-7)
E: -----------------------------------------------------


----------------------------------------------------------------------
Repeat from beginning
----------------------------------------------------------------------


G: (second time) -99-77-66-------------
D:               ----------99-7-6------
A:               -----------------9-7-6
E:               ----------------------


----------------------------------------------------------------------
Repeat from beginning
----------------------------------------------------------------------


outro
G: ---------------------------------------22-44-2=-
D: --------22----------22---------22-44-55---------
A: 22-44-55---22-44-55---22-44-55------------------
E: ------------------------------------------------


----------------------------------------------------------------------
(instrumental)
Comments