Descendents - Thank You Chords & Tabs

 

Thank You Chords & Tabs

Descendents Chords & Tabs

Version: 1 Type: Tab 0 ratings
1 star 2 stars 3 stars 4 stars 5 stars
comments

Thank You Tab

   
Song structure:

Intro
Verse
Pre-chorus
Chorus
Verse
Pre-chorus
Chorus
Solo (Play intro)
Bridge
Chorus
Ending

Intro:

E|------------------------------------------|
B|------------------------------------------|
G|------------------------------------------|
D|-5--77777777-55555555-77777777-33333333---|
A|-5--77777777-55555555-77777777-33333333---|
E|-3--55555555-33333333-55555555-11111111---|

E|------------------------------------------|
B|------------------------------------------|
G|-555555555555-----------------------------|
D|-555555555555-555-777777777777--6-8-------|
A|-333333333333-555-777777777777--6-8-------|
E|--------------333-555555555555--4-6-------|

Verse: Play 2x

E|------------------------------------------|
B|------------------------------------------|
G|-55555555-77777777------------------------|
D|-55555555-77777777-333333333333-3-5-------|
A|-33333333-55555555-333333333333-3-5-------|
E|-------------------111111111111-1-3-------|

Pre-chorus: (Right, right on..)

E|------------------------------------------|
B|------------------------------------------|
G|-9-99-999-------------------xxxxxxxxxxxxx-|
D|-9-99-999-7-77-777-33333333-6666666666666-|
A|-7-77-777-7-77-777-33333333-6666666666666-|
E|----------5-55-555-11111111-4444444444444-|

Chorus:

E|------------------------------------------|
B|------------------------------------------|
G|-55555555---------------------------------|
D|-55555555-55555555-3333333333333333-------|
A|-33333333-55555555-3333333333333333-------|
E|----------33333333-1111111111111111-------|

(Now, no way...)
E|------------------------------------------|
B|------------------------------------------|
G|----------9-99-999------------------------|
D|-7-77-777-9-99-999-888888888888-----------|
A|-7-77-777-7-77-777-888888888888-----------|
E|-5-55-555----------666666666666-----------|
[ Tab from: http://www.guitartabs.cc/tabs/d/descendents/thank_you_tab.html ]
(Thank you for...)
E|------------------------------------------|
B|------------------------------------------|
G|-77777777---------------------------------|
D|-77777777-33333333-777777777777-6-8-------|
A|-55555555-33333333-777777777777-6-8-------|
E|----------11111111-555555555555-4-6-------|

Solo: /=Slide b=bend p=pull off h=hammer on

E|-5---------------------------------------------------888888888888//55---|
B|---5-------------------------------------------------888888888888//55---|
G|-----5-5/4-4/2-2/0-0/2-2----2---------7b-7p5-----5----------------------|
D|------------------------------5p2-5h0--------7-5------------------------|
A|------------------------------------------------------------------------|
E|------------------------------------------------------------------------|

E|------------------------|
B|------------------------|
G|------------------------|
D|------------------------|
A|-0-3-5-66-5-3-5-3-0-----|
E|------------------------|

Bridge:

(Don't you know...)
E|------------------------------------------|
B|------------------------------------------|
G|-------------------5555-------------------|
D|-3~-------5~-------5555-5555-3333-5555----|
A|-3--------5--------3333-5555-3333-5555----|
E|-1--------3-------------3333-1111-3333----|

(Let me know I'm not alone...)
E|--------------------------|
B|--------------------------|
G|----------99999999--------|
D|-77777777-99999999--------|
A|-77777777-77777777--------|
E|-55555555-----------------|

(Make me feel strong...)
E|------------------------------------------|
B|------------------------------------------|
G|-xxxxxxxxxxxxxxxxxxxxxxxx-----------------|
D|-666666666666666666666666-6-88------------|
A|-666666666666666666666666-6-88------------|
E|-444444444444444444444444-4-66------------|

Ending:

(Thank you for...)
E|--------------------(2x)------------------|
B|------------------------------------------|
G|-77777777----------5555555555555555-------|
D|-77777777-33333333-5555555555555555-------|
A|-55555555-33333333-3333333333333333-------|
E|----------11111111------------------------|

E|------------------------------------------|
B|------------------------------------------|
G|-77777777---------------------------------|
D|-77777777-33333333-777777777777-6-88-10---|
A|-55555555-33333333-777777777777-6-88-10---|
E|----------11111111-555555555555-4-66-8----|
Comments