Descendents - Thank You Chords & Tabs

 

Thank You Chords & Tabs

Descendents Chords & Tabs

Version: 1 Type: Bass Tab

Thank You Bass Tab

Intro :

G|------------------------------------------|
D|------------------------------------------|
A|------------------------------------------|
E|-3--55555555-33333333-55555555-11111111---|

G|------------------------------------------|
D|------------------------------------------|
A|-333333333333-----------------------------|
E|--------------333-555555555555--4-6-------|

verse :


G|------------------------------------------|
D|------------------------------------------|
A|-33333333-55555555------------------------|
E|-------------------111111111111-1-3-------|


Pre-chorus: (Right, right on..)


G|------------------------------------------|
D|------------------------------------------|
A|-7-77-777---------------------------------|
E|----------5-55-555-11111111-4444444444444-|


Chorus:


G|--------------------------------------------|
D|-----------------------------332200---------|
A|-33333333--------------------------33-------|
E|----------33333333-11111111-----------------|

(Now, no way...)

G|----------------------------------------------------|
D|-7-5-------------------------------88775533---------|
A|-----7-0---7-5--------------------------------------|
E|---------------7-0---666666666666-------------------|


(Thank you for...)

[ Tab from: http://www.guitartabs.cc/tabs/d/descendents/thank_you_btab.html ]
G|------------------------------------------|
D|------------------------------------------|
A|-55555555---------------------------------|
E|----------11111111-555555555555-4-6-------|


at the solo part just play the intro 


G|------------------------------------------|
D|------------------------------------------|
A|------------------------------------------|
E|-3--55555555-33333333-55555555-11111111---|

G|------------------------------------------|
D|------------------------------------------|
A|-333333333333-----------------------------|
E|--------------333-555555555555--4-6-------|


Bridge:


G|------------------------------------------|
D|------------------------------------------|
A|-------------------3333-------------------|
E|-1--------3-------------3333-1111-3333----|


(Let me know I'm not alone...)

G|--------------------------|
D|--------------------------|
A|------------77777777------|
E|-55555555-----------------|


(Make me feel strong...)

G|------------------------------------------|
D|------------------------------------------|
A|------------------------------------------|
E|-444444444444444444444444-4-66------------|


Ending:

(Thank you for...)

G|------------------------------------------|
D|------------------------------------------|    2X
A|-55555555----------3333333333333333-------|
E|----------11111111------------------------|

G|------------------------------------------|
D|------------------------------------------|
A|-55555555---------------------------------|
E|----------11111111-555555555555-4-66-8----|