Descendents - She Loves Me Chords & Tabs

 

She Loves Me Chords & Tabs

Descendents Chords & Tabs

Version: 2 Type: Tab 0 ratings
1 star 2 stars 3 stars 4 stars 5 stars
comments

She Loves Me Tab

   
i asked somebody to post this a while ago but it never made it so heres my stab at it.

e|-------------------------------------------------|
B|-------------------------------------------------|
G|--7/9--9---9---9-9-9-9-9-9-9-9-9-9-9-9-9-9-9-9---|
D|-----7---9---9-9-9-9-9-9-9-9-9-9-9-9-9-9-9-9-9---|
A|---------------7-7-7-7-7-7-7-7-7-7-7-7-7-7-7-7---|
E|---------------0-0-0-0-0-0-0-0-0-0-0-0-0-0-0-0---|

e|-------------------------------------------------|
B|-------------------------------------------------|
G|--7/9--9---9---9-9-9-9-9-9-9-9-9-9-9-9-9-9-9-9---|
D|-----7---9---9-9-9-9-9-9-9-9-9-9-9-9-9-9-9-9-9---|
A|---------------7-7-7-7-7-7-7-7-7-7-7-7-7-7-7-7---|
E|---------------0-0-0-0-0-0-0-0-0-0-0-0-0-0-0-0---|

e|--------------------------------------------------------------|
B|--------------------------------------------------------------|
G|-5----5-5-5-5-14-14-14-14-14-14-14-14-14-14-14-14-14-14-14-14-|
D|-5----5-5-5-5-14-14-14-14-14-14-14-14-14-14-14-14-14-14-14-14-|
A|-3----3\2/3\2-12-12-12-12-12-12-12-12-12-12-12-12-12-12-12-12-|
E|--------------------------------------------------------------|

E|-------------------------------------------------|
B|-------------------------------------------------|
G|--5----5-5-5-5--7----7----7----------------------|
D|--5----5-5-5-5--7----7----7----------------------|
A|--3----3\2/3\2--5----5----5----------------------|
E|-------------------------------------------------|

  she loves me, it's not just in my head... 
e|------------------------------------------------|
B|------------------------------------------------|
G|.--12-12-12-12-12-12-12-12-12-5-5-5-5-5-5-5-5--.|
D|.--12-12-12-12-12-12-12-12-12-5-5-5-5-5-5-5-5--.|
A|---10-10-10-10-10-10-10-10-10-3-3-3-3-3-3-3-3---|
E|------------------------------------------------|

e|-------------------------------------------------------------------------|
B|-------------------------------------------------------------------------|
G|-12-12-12-12-12-12-12-12-5-5-5-5-5-5-5-5-4-4-4-4-4-4-4-4-7-7-7-7-7-7-7-7-|
D|-12-12-12-12-12-12-12-12-5-5-5-5-5-5-5-5-4-4-4-4-4-4-4-4-7-7-7-7-7-7-7-7-|
A|-10-10-10-10-10-10-10-10-3-3-3-3-3-3-3-3-2-2-2-2-2-2-2-2-5-5-5-5-5-5-5-5-|
E|-------------------------------------------------------------------------|

e|-------------------------------------------------------------------------|
B|-------------------------------------------------------------------------|
G|-5-5-5-5-5-5-5-5-9-9-9-9-9-9-9-9-12-12-12-12-12-12-12-12-5-5-5-5-5-5-5-5-|
D|-5-5-5-5-5-5-5-5-9-9-9-9-9-9-9-9-12-12-12-12-12-12-12-12-5-5-5-5-5-5-5-5-|
A|-3-3-3-3-3-3-3-3-7-7-7-7-7-7-7-7-10-10-10-10-10-10-10-10-3-3-3-3-3-3-3-3-|
E|-------------------------------------------------------------------------|

e|-----------------------------------|
B|-----------------------------------|
G|--9-9-------5-5--------4---4---4---|
D|--9---9-----5---5------4---4---4---|
A|--7-----7---3-----3----2---2---2---|
E|-----------------------------------|

Verse 1
   She loves me I ...      ...and I'm sure that she cant hear
e|--------------------------------------------------------------------|
B|--------------------------------------------------------------------|
G|------------------------------------------------4---4-4-4/7---7-7-7-|
D|-----2------------------------------------------4---4-4-4/7---7-7-7-|
A|-5/7-2---(7)~~~~~-------------------------------2---2-2-2/5---5-5-5-|
E|-----0--------------------------------------------------------------|
               p.h. (w feed back)       

    how I scream out...
e|--------------------------------------------------------------------|
B|--------------------------------------------------------------------|
G|-9-9-9-9-9-9-9-9-9-9-9-9-9-9-9-9-9-9-9-9-9-9-9-9-9-9-9-9-9-9-9-9----|
D|-9-9-9-9-9-9-9-9-9-9-9-9-9-9-9-9-9-9-9-9-9-9-9-9-9-9-9-9-9-9-9-9----|
A|-7-7-7-7-7-7-7-7-7-7-7-7-7-7-7-7-7-7-7-7-7-7-7-7-7-7-7-7-7-7-7-7----|
E|-0-0-0-0-0-0-0-0-0-0-0-0-0-0-0-0-0-0-0-0-0-0-0-0-0-0-0-0-0-0-0-0----|
   p.m................................................................

   our love could never grow sour it grows more pure... 
e|-----------------------------------------------------------------|
B|-----------------------------------------------------------------|
G|---5--5---------10--10-----------9-x-9-x-9-x-9-x-5-x-5-x-5-x-5---|
D|---5-----5------10------10-------9-x-9-x-9-x-9-x-5-x-5-x-5-x-5---|
A|---3--------3---12----------12---7-x-7-x-7-x-7-x-3-x-3-x-3-x-3---|
E|-----------------------------------------------------------------|

   I never wanted anything...
e|-------------------------------------|
B|-------------------------------------|
G|---4--4--------5--5--5--5--4--4--4---|
D|---4-----4-----5--5--5--5--4--4--4---|
A|---2--------2--3--3--3--3--2--2--2---|
E|-------------------------------------|
[ Tab from: http://www.guitartabs.cc/tabs/d/descendents/she_loves_me_tab_ver_2.html ]
 she loves me
e|------------------------------------------------|
B|------------------------------------------------|
G|.--12-12-12-12-12-12-12-12-12-5-5-5-5-5-5-5-5--.|
D|.--12-12-12-12-12-12-12-12-12-5-5-5-5-5-5-5-5--.|
A|---10-10-10-10-10-10-10-10-10-3-3-3-3-3-3-3-3---|
E|------------------------------------------------|

e|-------------------------------------------------------------------------|
B|-------------------------------------------------------------------------|
G|-12-12-12-12-12-12-12-12-5-5-5-5-5-5-5-5-4-4-4-4-4-4-4-4-7-7-7-7-7-7-7-7-|
D|-12-12-12-12-12-12-12-12-5-5-5-5-5-5-5-5-4-4-4-4-4-4-4-4-7-7-7-7-7-7-7-7-|
A|-10-10-10-10-10-10-10-10-3-3-3-3-3-3-3-3-2-2-2-2-2-2-2-2-5-5-5-5-5-5-5-5-|
E|-------------------------------------------------------------------------|

e|-------------------------------------------------------------------------|
B|-------------------------------------------------------------------------|
G|-5-5-5-5-5-5-5-5-9-9-9-9-9-9-9-9-12-12-12-12-12-12-12-12-5-5-5-5-5-5-5-5-|
D|-5-5-5-5-5-5-5-5-9-9-9-9-9-9-9-9-12-12-12-12-12-12-12-12-5-5-5-5-5-5-5-5-|
A|-3-3-3-3-3-3-3-3-7-7-7-7-7-7-7-7-10-10-10-10-10-10-10-10-3-3-3-3-3-3-3-3-|
E|-------------------------------------------------------------------------|

e|-----------------------------------|
B|-----------------------------------|
G|--9-9-------5-5--------4---4---4---|
D|--9---9-----5---5------4---4---4---|
A|--7-----7---3-----3----2---2---2---|
E|-----------------------------------|

she loves me i can see it
e|------------------------------------------------------------------|
B|------------------------------------------------------------------|
G|----------------------------------------------4---4-4-4/7---7-7-7-|
D|-5\2------------------------------------------4---4-4-4/7---7-7-7-|
A|-5\2---(7)~~~~~-------------------------------2---2-2-2/5---5-5-5-|
E|-3\0--------------------------------------------------------------|
               p.h. (w feed back)       

    how I hate girls...
e|------------------------------------------------------------------|
B|------------------------------------------------------------------|
G|-9-9-9-9-9-9-9-9-9-9-9-9-9-9-9-9-9-9-9-9-9-9-9-9-9-9-9-9-9-9-9-9--|
D|-9-9-9-9-9-9-9-9-9-9-9-9-9-9-9-9-9-9-9-9-9-9-9-9-9-9-9-9-9-9-9-9--|
A|-7-7-7-7-7-7-7-7-7-7-7-7-7-7-7-7-7-7-7-7-7-7-7-7-7-7-7-7-7-7-7-7--|
E|-0-0-0-0-0-0-0-0-0-0-0-0-0-0-0-0-0-0-0-0-0-0-0-0-0-0-0-0-0-0-0-0--|
   p.m............................................................

   our love could never grow sour it grows more pure... 
e|-----------------------------------------------------------------|
B|-----------------------------------------------------------------|
G|---5--5---------10--10-----------9-x-9-x-9-x-9-x-5-x-5-x-5-x-5---|
D|---5-----5------10------10-------9-x-9-x-9-x-9-x-5-x-5-x-5-x-5---|
A|---3--------3---12----------12---7-x-7-x-7-x-7-x-3-x-3-x-3-x-3---|
E|-----------------------------------------------------------------|

   I never wanted anything...
e|-------------------------------------|
B|-------------------------------------|
G|---4--4--------5--5--5--5--4--4--4---|
D|---4-----4-----5--5--5--5--4--4--4---|
A|---2--------2--3--3--3--3--2--2--2---|
E|-------------------------------------|

 she loves me (i don't have to be)
e|------------------------------------------------|
B|------------------------------------------------|
G|---12-12-12-12-12-12-12-12-12-5-5-5-5-5-5-5-5---|
D|---12-12-12-12-12-12-12-12-12-5-5-5-5-5-5-5-5---|
A|---10-10-10-10-10-10-10-10-10-3-3-3-3-3-3-3-3---|
E|------------------------------------------------|

 she loves me
     (all by myself)
e|------------------------------------------------|
B|------------------------------------------------|
G|---12-12-12-12-12-12-12-12-12-5-5-5-5-5-5-5-5---|
D|---12-12-12-12-12-12-12-12-12-5-5-5-5-5-5-5-5---|
A|---10-10-10-10-10-10-10-10-10-3-3-3-3-3-3-3-3---|
E|------------------------------------------------|

 she loves me
     (she don't love)
e|------------------------------------------------|
B|------------------------------------------------|
G|---12-12-12-12-12-12-12-12-12-5-5-5-5-5-5-5-5---|
D|---12-12-12-12-12-12-12-12-12-5-5-5-5-5-5-5-5---|
A|---10-10-10-10-10-10-10-10-10-3-3-3-3-3-3-3-3---|
E|------------------------------------------------|

  (no one else.....)
e|------------------------------------------------|
B|------------------------------------------------|
G|---12-12-12-12-12-12-12-12-12-5-5-5-5-5-5-5-5---|
D|---12-12-12-12-12-12-12-12-12-5-5-5-5-5-5-5-5---|
A|---10-10-10-10-10-10-10-10-10-3-3-3-3-3-3-3-3---|
E|------------------------------------------------|

  the way she loves me
e|-------------------------------------------------|
B|-------------------------------------------------|
G|--7/9--9---9---9-9-9-9-9-9-9-9-9-9-9-9-9-9-9-9---|
D|-----7---9---9-9-9-9-9-9-9-9-9-9-9-9-9-9-9-9-9---|
A|---------------7-7-7-7-7-7-7-7-7-7-7-7-7-7-7-7---|
E|---------------0-0-0-0-0-0-0-0-0-0-0-0-0-0-0-0---|

 the way she loves me
e|---------------0----|
B|---------------0----|
G|--7/9--9---9---9----|
D|-----7---9---9-9----|
A|---------------7----|
E|---------------0----|


its a really sweet song and im surprised the only other tab for it here is the lyrics. enjoy!
Comments