Descendents - Hope Chords & Tabs

 

Hope Chords & Tabs

Descendents Chords & Tabs

Version: 2 Type: Tab 0 ratings
1 star 2 stars 3 stars 4 stars 5 stars
comments

Hope Tab

Song: Hope
Artist: Descendents
Tabbed by: The Great Jenji!!!

intro
----------------|
----------------|
-----6-7--------|
-4-4-6-7-7-7----|
-4-4-4-5-7-7----|
-2-2-----5-5----|
[ Tab from: http://www.guitartabs.cc/tabs/d/descendents/hope_tab_ver_2.html ]
why can't you see...     your already thinking...
wait for his spark..     hes gonna make you feel..
----------------------| -------------------|
----------------------| -------------------|
-----7----------------| -------------------|
-9-7-7----------------| -9-7---------------|
-9-7-5----------------| -9-7---------------|
-7-5------------------| -7-5---------------|

when he starts to lie....
----------------------|
----------------------|
-----7----------------|
-5-7-7----------------|
-5-7-5----------------|
-3-5------------------|

there, my day will come.....
(play intro)

call me selfish.../you want perfection...
------------------------|
------------------------|
---7-------7------------|
-5-7-5-7-5-7-7-5-7------|
-5-5-5-7-5-5-7-5-7------|
-3---3-5-3---5-3-5------|
Comments