Descendents - Hope Chords & Tabs

 

Hope Chords & Tabs

Descendents Chords & Tabs

Version: 1 Type: Bass Tab 0 ratings
1 star 2 stars 3 stars 4 stars 5 stars
comments

Hope Bass Tab

   
"Hope" by the Descendents (Words and Music by Milo Aukerman)

Off the SST album "Milo goes to college"

Tabbed by Malcolm Wales (mw14@uow.edu.au)

[This was created with TabIt version 1.2]




Intro                        
   q q eeee q q q q  q eeeeq  q eeeeq  q q eeee
G :--------|--------|--------|--------|--------|
D :--------|--------|--------|--------|--------|
A :--------|4-4-5-5-|0-00000-|0-00000-|--------|
E :2-2-2222|--------|--------|--------|2-2-2222|



                              1st Verse
   q q q q  q q eeee eeeeq q  q eq eee q eeq q
G :--------|--------|--------|--------|--------|
D :--------|--------|--------|--------|--------|
A :4-4-5-5-|0-0-0000|00000-0-|2-22-222|2-220-0-|
E :--------|--------|--------|--------|--------|



   q eq eee ee q eeq  q eq eq  q eeeeq
G :--------|---------|--------|--------|
D :--------|--/7-75--|--------|--------|
A :5-55-555|55-----7-|2-22-22-|2-22222-|
E :--------|---------|--------|--------|




   q eq eee q eeeeq  q eq eq  q eeq q
G :--------|--------|--------|--------|
D :--------|--------|--------|--------|
A :0-00-000|0-00000-|--------|----0-0-|
E :--------|--------|3-33-33-|3-33----|



                     Chorus
   q eeeeq  eeeeeeee q q eeee q eeq ee
G :--------|--------|--------|--------|
D :--------|--------|--------|--------|
A :5-55555-|55442200|--------|4-445-55|
E :--------|--------|2-2-2222|--------|




   q eeeeq  q eeeeee q eeeeee q eeq ee
G :--------|--------|--------|--------|
D :--------|--------|--------|--------|
A :0-00000-|0-0000--|--------|4-445-55|
E :--------|------44|2-222222|--------|




   q eeeeq  eeeeq q
G :--------|--------|
D :--------|--------|
A :0-00000-|00000-0-|
E :--------|--------|


Repeat Verse and chorus, except for last bar of chorus, 
which goes:

   eeeeeeee
G :--------|
D :--------|
A :00000000|
E :--------|



[ Tab from: http://www.guitartabs.cc/tabs/d/descendents/hope_btab.html ]
Bridge 1
   q eeeeee eeeeeeee q eeeeee
G :--------|--------|--------|
D :--------|--------|--------|
A :--------|--------|5-555555|
E :3-333333|33333333|--------|




   eeeeeeee q eeeeee eeeeeeee
G :--------|--------|--------|
D :--------|--------|--------|
A :55555555|2-222222|22222222|
E :--------|--------|--------|




   q eeeeee eeeeeeee q eeeeee
G :--------|--------|--------|
D :--------|--------|--------|
A :0-000000|00000000|--------|
E :--------|--------|3-333333|




   eeeeeeee e eeq eee eeeeeeee
G :--------|---------|--------|
D :--------|---------|--------|
A :--------|4/555-555|55555555|
E :33333333|---------|--------|




   q eeq ee q eeq ee q q q q  q eq eee
G :--------|--------|--------|--------|
D :--------|--------|--------|--------|
A :0-000-00|0-000-00|----5-5-|0-00-000|
E :--------|--------|3-3-----|--------|


(Repeat Verse, Chorus*2)




Bridge 2
   q eq eee q eq eee q eq eee q eq eee
G :--------|--------|--------|--------|
D :--------|--------|--------|--------|
A :4-44-444|4-44-444|7-77-777|7-77-777|
E :--------|--------|--------|--------|




   eeeeeeee eeeeeeee eeeeeeee eeeeeeee
G :--------|--------|--------|--------|
D :--------|--------|--------|--------|
A :--------|--------|55555555|55555555|
E :33333333|33333333|--------|--------|




   q eq eee q eq eee q eq eee
G :--------|--------|--------|
D :--------|--------|--------|
A :4-44-444|4-44-444|0-00-000|   
E :--------|--------|--------|




   eeeeeeee eeeeeeee
G :--------|--------|
D :--------|--------|
A :--------|--------|
E :33333333|33333333|               




   eeeeeeee eeeeeeee q eeq q  q eq eee
G :--------|--------|--------|--------|
D :--------|--------|--------|--------|
A :55555555|55442200|----4-4-|5-50-000|
E :--------|--------|2-22----|--------|




   q q q q  q eh+e
G :--------|--------|
D :--------|--------|
A :----4-4-|5-50----|
E :2-2-----|--------|




Key
---

w = whole note
h = half note
q = quarter note
e = eighth note
s = sixteenth note
(ties are indicated as "h+e" or "e+s" etc)



Comments